Song name
# A B C D E F G H I J K L M N O P Q R S T U V W X Y Z

Marilyn Manson - Four Rusted Horses tab

Four Rusted Horses by Marilyn Manson (The High End Of Low (2009))

Four Rusted Horses Guitar Tab by GuitarZero

| / slide up
| h hammer-on
| p pull-off
| ~ let ring

Standard Tuning (ebgdae)

Intro & Verses

e-------------------------------------------|
b-------------------------------------------|
g-------------------------------------------|
d-------------------------------------------|
a-----5-----5------5------------------------|
e-0h3/5-0-3/5--0-3/5------------------------|

e-------------------------------------------|
b-------------------------------------------|
g-------------------------------------------|
d-------------------------------------------|
a-----5-----5------5--33--------------------|
e-0h3/5-0-3/5--0-3/5--33--------------------|

This part here is for the third verse (where there is no guitar before the chorus kicks in).

e-------------------------------------------|
b-------------------------------------------|
g-------------------------------------------|
d-------------------------------------------|
a--5-33-------------------------------------|
e----33-------------------------------------|

The chorus is hard to hear especially the acoustic guitar but this should suffice. 
to the song to get a good feel for the strumming pattern.

  C(add9)         Dm

  everyone...      funeral...
e-----------------1-1-1-1-1-1-1-1-----------|
b-3-3-3-3-3-3-3-3-3-3-3-3-3-3-3-3-----------|
g-----------------2-2-2-2-2-2-2-2-----------|
d-2-2-2-2-2-2-2-2---------------------------|
a-3-3-3-3-2-3-3-3---------------------------|
e-------------------------------------------|

The bridge. Here's a good approximation considering the strings and guitars all mixed 
You can just barre these chords.

  C5      G5      A5

  you..   this..  forbidden...
e-3-3-3-3-3-3-3-3-5-5-5-5-------------------|
b-3-3-3-3-3-3-3-3-5-5-5-5-------------------|
g-5-5-5-5-3-3-3-3-5-5-5-5-------------------|
d-5-5-5-5-5-5-5-5-7-7-7-7-------------------|
a-3-3-3-3-5-5-5-5-7-7-7-7-------------------|
e-3-3-3-3-3-3-3-3-5-5-5-5-------------------|

Outro.

e-------------------------------------------|
b-------------------------------------------|
g-------------------------------------------|
d-------------------------------------------|
a------------------------------0------------|
e--555555555555555555555555~~--0~~----------|
Tap to rate this tab
 
# A B C D E F G H I J K L M N O P Q R S T U V W X Y Z