Song name
# A B C D E F G H I J K L M N O P Q R S T U V W X Y Z

Marilyn Manson - Great Big White World tab

e||-13--13--13--13--13-13-15--15--15--||
B||-----------------------------------||
G||-----------------------------------||
D||-----------------------------------||
A||-----------------------------------||
E||-----------------------------------||

e||-15--15-15-16--16--16--16--16-16-18||
B||-----------------------------------||
G||-----------------------------------||
D||-----------------------------------||
A||-----------------------------------||
E||-----------------------------------||

e||-18--18-20-20-20-20----------------||
B||-----------------------------------||
G||-----------------------------------||
D||-----------------------------------||
A||-----------------------------------||
E||-----------------------------------||

Once Youre Done Playing the Above Section, Repeat it once more.
Then....

e||----20------20------20------20-----||
B||-18------18------18------18--------||
G||-----------------------------------||
D||-----------------------------------||
A||-----------------------------------||
E||-----------------------------------||

e||----20------20------19------28-----||
B||-18------18------17------16--------||
G||-----------------------------------||
D||-----------------------------------||
A||-----------------------------------||
E||-----------------------------------||

Now this next part is a little hard to hear in the penultimate chorus, but believe me, 
playing it.

e||-----------------------------------||
B||------------------8-8b--8b-8b--6---||
G||-0-0h1h3h5--5--3-------------------||
D||-----------------------------------||
A||-----------------------------------||
E||-----------------------------------||

e||-----------------------------------||
B||-8--8b--8b---8b---6----8---8b--8b--||
G||-----------------------------------||
D||-----------------------------------||
A||-----------------------------------||
E||-----------------------------------||

e||-----------------------------------||
B||-8--8b--8b---8b---6----8---8b--8b--||
G||-----------------------------------||
D||-----------------------------------||
A||-----------------------------------||
E||-----------------------------------||
Tap to rate this tab
 
# A B C D E F G H I J K L M N O P Q R S T U V W X Y Z