Marilyn Manson - Heart-shaped Glasses tab

-------------------------------------------------------------------------

  HEART SHAPED GLASSES (When The Heart Guides The Hand) - Marilyn Manson 
-------------------------------------------------------------------------------
Tabbed by: ironmanben
Email: bentrooper@gmail.com

Tuning: e B G D A E


guitar 1 (Electric) - Tim Skold
guitar 2 (Acoustic) - Tim Skold


main riff:
e|------------------------------------------------------|
B|-x---x---1313131313--x---x---x---x---x---1313131313---|
G|-x---x---1414141414--x---x---x---x---x---1414141414---|
D|-x---x---------------x---x---x---x---x----------------|
A|------------------------------------------------------|
E|------------------------------------------------------|

e|-----------------------------------------------------12--12------|
B|-13----13--13----13--13--13--13----13--12----12--12--12--12--12--|
G|-14----14--12----12--12--12--12----12--12----12--12--12--12--12--|
D|-----------------------------------------------------------------|
A|-----------------------------------------------------------------|
E|-----------------------------------------------------------------|



bridge 1:
e|-5-----5-----5-----5-----5-----5-----5---------5--------5------|
B|-6-----6-----6-----6-----6-----6-----6---5-----5--------5------|
G|-----------------------------------------5-----5---------------|
D|---------------------------------------------------------------|
A|---------------------------------------------------------------|
E|---------------------------------------------------------------|

e|-----------------------------------------------17---17---------|
B|-18----18----18----18----18----18----18--17----17---17---------|
G|-17----17----17----17----17----17----17--17----17--------------|
D|---------------------------------------------------------------|
A|---------------------------------------------------------------|
E|---------------------------------------------------------------|


pre-chorus:
e|-8---8---10---12---13---12---10-------8-----(8)--------------------------|
B|------------------------------------------------10------------------(10)-|
G|-------------------------------------------------------------------------|
D|-------------------------------------------------------------------------|
A|-------------------------------------------------------------------------|
E|-------------------------------------------------------------------------|

e|-8---8---10---12---13---12---10-------8-----(8)-10-------12~--------(12)-|
B|-------------------------------------------------------------------------|
G|-------------------------------------------------------------------------|
D|-------------------------------------------------------------------------|
A|-------------------------------------------------------------------------|
E|-------------------------------------------------------------------------|

e|-12---12---|
B|-----------|
G|-----------|
D|-----------|
A|-----------|
E|-----------|


bridge 2:
e|-17-----15---------13-----12---------10-----12---------7-----8---------|
B|-18-----17---------15-----13---------12-----13---------8-----10--------|
G|-----------------------------------------------------------------------|
D|-----------------------------------------------------------------------|
A|-----------------------------------------------------------------------|
E|-----------------------------------------------------------------------|


bridge 3:
(Acoustic)
e|------------------------------------|
B|------------------------------------|
G|------------------------------------|
D|-------------------0----------------|
A|-0-0-0-2-3-0-0-2/3---2-2-/5-7-5-3-2-|
E|------------------------------------|


bridge 3:
(Electric)
e|------17---------------------17---------------------17-----17-------17--|
B|---17-17------15----------17-17----15----15----15---17-17171717---1717--|
G|---17----1717----17-------17----17----17----17-17------1717--17---17----|
D|------------------------------------------------------------------------|
A|------------------------------------------------------------------------|
E|------------------------------------------------------------------------|

e|-----------|
B|-15--15----|
G|---17--17--|
D|-----------|
A|-----------|
E|-----------|


ORDER:
main riff x4
bridge 1
verse (drums and bass only)
pre-chorus
main riff x4
bridge 2 x2
verse (drums and bass only)
pre-chorus x4
bridge 3 (acoustic) x2
bridge 3 (acoustic) x2/(electric) x2
main riff x2
main riff x4



************************************

| /   slide up
| \   slide down
| h   hammer-on
| p   pull-off
| ~   vibrato
| +   harmonic
| x   Mute note
| b   Bend
| pb  Pre-bend
| br  Bend release
| pbr Pre-bend release
| brb Bend release bend

************************************
Tap to rate this tab
 
# A B C D E F G H I J K L M N O P Q R S T U V W X Y Z