Song name
# A B C D E F G H I J K L M N O P Q R S T U V W X Y Z

Marilyn Manson - Target Audience tab

Intro & verse part 1
Clean with effect
1|-------0----1-------0-----------------------------------|
2|---3-----3------3-----3---3----1----0---1-------0--0----|
3|----2-----2------2------2-------2----2-----2-----2------| Play 4 times
4|-2---2---------------------------2----2-----2-----2-----|
5|------------------------------0-------------------------|
6|--------------------------------------------------------|


verse part 2
Clean with effect
1|----------------------------------------------------|
2|-1---0---1-1-------1-1---0---1-1---0-----0----------|
3|--2----2----2--4-2----2---2------2---2--------------|
4|---------------------------------------2------------| Play 3 times
5|----------------------------------------------------|
6|----------------------------------------------------|


verse part 1
Clean with effect
1|-------0----1-------0---------------------------|
2|---3-----3------3-----3---3----1----0------1----|
3|----2-----2------2------2-------2----2-----2----|
4|-2---2---------------------------2----2----2----|
5|------------------------------0-----------------|
6|------------------------------------------------|

Chorus
Distortion
1|----------------------------------------------------------------|
2|-------^-----------------------^--------------------------------|
3|------14----------------------14--------------------------------|
4|-0-0--13----3-3-x-x----x-2-2--13----1-1-1-/-3-3-----0-----------|
5|-0-0--------3-3-x-x----x-2-2--------1-1-1-/-3-3-----0-Let ring--|
6|-0-0--------3-3-x-x----x-2-2--------1-1-1-/-3-3-----0-----------|
_________________________________________________
                 Play 3 times

Clean with effect
1|-------0----1-------0-----------------------------------|
2|---3-----3------3-----3---3----1----0---1-------0--0----|
3|----2-----2------2------2-------2----2-----2-----2------| Play 3 times
4|-2---2---------------------------2----2-----2-----2-----|
5|------------------------------0-------------------------|
6|--------------------------------------------------------|

Clean with effect
1|----------------------------------------------------|
2|-1---0---1-1-------1-1---0---1-1---0-----0----------|
3|--2----2----2--4-2----2---2------2---2--------------|
4|---------------------------------------2------------| Play 3 times
5|----------------------------------------------------|
6|----------------------------------------------------|

Clean with effect
1|-------0----1-------0-----------------------------|
2|---3-----3------3-----3---3----1----0-------1-----|
3|----2-----2------2------2-------2----2------2-----|
4|-2---2---------------------------2----2-----2-----|
5|------------------------------0-------------------|
6|--------------------------------------------------|

Chorus guitar 1
Distortion
1|-------------------------------------------------------|
2|-------^-----------------------^-----------------------|
3|------14----------------------14-----------------------|
4|-0-0--13----3-3-x-x----x-2-2--13----1-1-1-/-3-3--------| Play 6 times
5|-0-0--------3-3-x-x----x-2-2--------1-1-1-/-3-3--------|
6|-0-0--------3-3-x-x----x-2-2--------1-1-1-/-3-3--------|

Guitar 2 during chorus
1|------------------------------------------------------------------|
2|------------^--------------------15--------------^----------------|
3|----------13------------13-14/13----------------13------------13--|
4|-12-10-10------12-10-10----------------12-10-10------12-10-10-----|
5|------------------------------------------------------------------|
6|------------------------------------------------------------------|

Bridge Part 1
1|----------------------------------------|
2|----------------------------------------|
3|----------------------------------------|
4|-------^--------------------------------| Play 6 times
5|---2---2--------------------------------|
6|-2---2---3-/-6---3--2-------------------|

Bridge Part 2
1|-----------------------------------------------|
2|-----------------------------------------------|
3|---7--------10--------9--------8---------------|
4|---x--------x---------x--------x---------------|
5|-0-5--------8---------7--------6---------------|
6|-----------------------------------------------|

Chorus Guitar 1
1|-----------------------------------------------------|
2|-----------------------------------------------------|
3|-----------------------------------------------------|
4|-0-0-x-x----x-3-3-x-x---x-2-2-x-x---x-1-1-1-/-3-3----| Play 8 times
5|-0-0-x-x----x-3-3-x-x---x-2-2-x-x---x-1-1-1-/-3-3----|
6|-0-0-x-x----x-3-3-x-x---x-2-2-x-x---x-1-1-1-/-3-3----|

Chorus Guitar 2
1|-13-13-13-13-12-12-12-12-------------11-11-11-11-----|
2|-------------------------11-11-11-11-----------------|
3|-----------------------------------------------------|
4|-----------------------------------------------------| Play 8 times
5|-----------------------------------------------------|
6|-----------------------------------------------------|

Chorus Guitar 2
1|-------------------------------------------|
2|-----------^--------------------15---------|
3|----------13------------13-14/13-----------|
4|-12-10-10------12-10-10--------------------| Play 4 time
5|-------------------------------------------|
6|-------------------------------------------|

Ok, I hope that helps. You will have to listen to the song and test out the tabs to know 
I mean on some of the repeated parts. But its a pretty easy song, so it shouldn't be 
hard to learn.
Tap to rate this tab
# A B C D E F G H I J K L M N O P Q R S T U V W X Y Z