Song name
# A B C D E F G H I J K L M N O P Q R S T U V W X Y Z

Marilyn Manson - This Is Halloween tab

:=repeat
h=Hammer-on
p=Pull-off

Intro
e--------------------------------------------------------------|
b--------------------------------------------------------------|
g--------------------------------------------------------------|
d--5--5--5--5-6--3--3--3--3-6--5--5--5-5.9-9--9--9--7-5-7-3--2-|
a--5--5--5--5-6--3--3--3--3-6--5--5--5-5/9-9--9--9--7-5-7-3--2-|
E--3--3--3--3-4--1--1--1--1-4--3--3--3-3/7-7--7--7--5-3-5-1--0-|

Chorus/verse
e----------------------------------------------------------|
b----------------------------------------------------------|
g----------------------------------------------------------|
d--5-5-5-5h6p5--3-3-3-3h4p3-3/9-9-9-9-9/7/9/12--12-12-12--3|  :
a----------------------------------------------------------|
E----------------------------------------------------------|

Chorus:THIS IS HALLOWEEN

e-----------------------------------------------------------------------|
b--11-11-11-10-8--11-11-11-10-8--11---------------8-9-----12-12-12-11-9-|
g------------------------------------11-10--10-8------------------------|
d-----------------------------------------------------------------------|
a-----------------------------------------------------------------------|
E-----------------------------------------------------------------------|

e-----------------------------------|
b--12-12-12-11-9--12------------9-9-|
g--------------------12-11-9--------|
d----------------------------11-----|
a-----------------------------------|
E-----------------------------------|
Tap to rate this tab
 
# A B C D E F G H I J K L M N O P Q R S T U V W X Y Z