Marilyn Manson - Lunchbox tab

Track: "Lunchbox"
Album: "Portrait Of An American Family"
By Marilyn Manson


Intro
-----------------------------------------|
---------------------------------11-11\--|
-----------7/9-9\----------------10-10\--|
--xxxxxxx--7/9-9\-------9\--------9--9\--|
--xxxxxxx--5/7-7\--xxx-10\--xxx----------|
--xxxxxxx----------xxx------xxx----------|


Intro
------------------------------------^-----|
-------------------12------------14^-^14--|
------7/9-9\-------12------------14---14--|
------7/9-9\----------------------bend----|
--xx--5/7-7\--xx---------2-xxx------------|
--xx----------xx---------3-xxx------------|


------------------------------------------------------------|
-----------------------------------------(5)----------------|
----7/9-9\-------------14-14\---7/9-9\-x-(5)-------10-------|
----7/9-9\------9\-----13-13\---7/9-9\-x---------xx-9-------|
-xx-5/7-7\-xxx-10\-xxx-------xx-5/7-7\-------x2\-xx-8-------|
-xx--------xxx-----xxx-------xx--------------x3\------------|


Intro
----------------------------------------|
----------------------------------------|
-----------7/9-9\---------------10-10---|
-----------7/9-9\-------9\-------9--9-0-|
--xxxxxxx--5/7-7\--xxx-10\--xxx--8--8---|
--xxxxxxx----------xxx------xxx---------|


Intro
---------------------^-------------------------------|
---------(5)------15^-^15--------------------^-------|
7/9-9\-x-(5)------14---14-7/9-9\----------14^-^14----|
7/9-9\-x------------------7/9-9\---9------13---13----|
5/7-7\--------2\----------5/7-7\-----10\-------------|
--------------3\-----------------0-------------------|


Intro
------------------------|
---------------0-(5)----|
7/9-9\---0----0--(5)----|
7/9-9\-x--x--0---(5)-xx-|
5/7-7\-x--x2\--------xx-|
-------x--x3\--------xx-|


Verse Intro
-------------------------------------------------|
-------------------------------------------------|
-------------------------------------------------|
-------------------------------------------------|
-7-----5----------5---------5----------5---------|
-0--------3---0------3--0------3---0-----3---0---|


Guitar two mini solo before verse
---------3^5^3-0--------------------|
----5------------3-0----------------|
--7---7--------------2-0------------|
--------------------------2--quick--|
--------------------------x--rest---|
--------------------------0---------|


Verse, play 4 Xs
|----------------|  --(5)------------heavy------------------------------|
|:--------------:|  --(5)------------palm-mute--------------------------|
|--quick---------|  --(5)------------=======-------=======------=======-|
|--rest---2---2--|  --harm.----------xxxxxxx-------xxxxxxx------xxxxxxx-|
|:--------0---x-:|  ----------5------xxxxxxx--5----xxxxxxx--5---xxxxxxx-|
|-----------3-0--|  ------------3--0-0000000-----3-0000000----3-0000000-|


Verse
----------------------------|
----------------------------|
-----========---9-----------|
-----xxxxxxxx---x-----------|
-5---xxxxxxxx---7-----------|
---3-00000000---0-----------|


CHORUS, 2Xs
||--------------33333-3333------------------------------------||
||:-9-9999999---XXXXX-XXXX-----------------------------------:||
||--9-9999999-X-XXXXX-XXXX-7-777-7/9-9\-----------------------||
||--9-9999999-5-55555-5555-0-000-0(0)0\-====================--||
||:-----7---7-X-XXXXX-XXXX-5-555-5/7-7\-22222222222222222222-:||
||------0---0-3-33333-3333--------------00000000000000000000--||


--------------------------------|
--------------------------------|
--7/9-9\--------------10-10\----|
--7/9-9\-------9\------9--9\----|
--5/7-7\-xxx--10\-xxx--8--8\----|
---------xxx------xxx-----------|


------------------HARM.-------------^-----|
------------------(12)-----------15^-^15--|
------7/9-9\------(12)-----------14---14--|
------7/9-9\----------------------bend----|
--xx--5/7-7\--xx---------2-xxx------------|
--xx----------xx---------3-xxx------------|


--------harm.--------------- --------harm-----------------------|
--------(12)--------^------- --------(12)-----------------------|
7/9-9\--(12)-----14^-^14---- -7/9-9\-(12)----14-14-14\----------|
7/9-9\--------9\-13---13---- -7/9-9\---------13-13-13\-===-==---|
5/7-7\-------10\------------ -5/7-7\------2------------222-5555-|
---------------------------- -------------3------------000-3333-|


VERSE 2, PLAY 11 Xs
|--------------------|
|:------------------:|
|--------PM----------|
|--------=========---|
|:--5----2-22-5555--:|
|-----3--0-00-3333---|


"Next Mother Fucker gonna get my metal..."
|-----------------------|
|-----------PM---------:|
|---PM------====--------|
|---=======-7777--------|
|:--2222222-5555--5----:|
|---0000000---------3---|


"POW! POW! POW!!!..."
|---------------------|--------------------|
|:-------PM----------:|---9----------------|
|--PM----===========--|---9----------------|
|--=====-999-888-777--|---9----------------|
|:-22222-555-555-555-:|---7----------------|
|--00000--------------|---0----------------|


CHORUS, 2Xs
||--------------33333-3333------------------------------------||
||:-9-9999999---XXXXX-XXXX-----------------------------------:||
||--9-9999999-X-XXXXX-XXXX-7-777-7/9-9\-----------------------||
||--9-9999999-5-55555-5555-0-000-0(0)0\-====================--||
||:-----7---7-X-XXXXX-XXXX-5-555-5/7-7\-22222222222222222222-:||
||------0---0-3-33333-3333--------------00000000000000000000--||


Bridge intro, repeat several times… FADES OUT INTO BRIDGE
|---------------------------------------|
|:-------------------------------------:|
|---=================================---|
|---XXXXXXXXXXXXXXXXXXXXXXXXXXXXXXXXX---|
|:--XXXXXXXXXXXXXXXXXXXXXXXXXXXXXXXXX--:|
|---000000000000000000000000000000000---|


bridge
-------------------^------------(5)----(5)------------------|
----------------12^-^12---------harm.-----(5)---------------|
---------------------------------with-----------------------|
-(9)-----------------------------echo-----------------------|
--ring---------------------------effect---------------------|
--feedback--------------------------------------------------|


Keyboard part into guitar
---------------------------10--5------|
-------------------------------8--9---|
--------------------------------------|
--------------------------------------|
--------------------------------------|
--------------------------------------|


bridge solo                                     b.       b.
----------12----^-------------------------------^---10---^---99-10--|
--------------11-11---------------------------11-11----11-11--------|
-------12------bend--14-12----------12^14^12------------------------|
-12^14---------------------14-12-14---------------------------------|
--------------------------------------------------------------------|
--------------------------------------------------------------------|


bridge solo
-10-10-10---9\5--3----------3--555-5^5---3-0---------------|
----------8--------3^5-3--3--------bend--------------------|
----------------------------------------------heavy--------|
----------------------------------------------pm-----------|
----------------------------------------------==========---|
----------------------------------------------000000000000-|


CHORUS, 4Xs
||--------------33333-3333------------------------------------||
||:-9-9999999---XXXXX-XXXX-----------------------------------:||
||--9-9999999-X-XXXXX-XXXX-7-777-7/9-9\-----------------------||
||--9-9999999-5-55555-5555-0-000-0(0)0\-====================--||
||:-----7---7-X-XXXXX-XXXX-5-555-5/7-7\-22222222222222222222-:||
||------0---0-3-33333-3333--------------00000000000000000000--||


OUTRO
------------------------------------------------------------------|
------------------------------------------------------------------|
------------------------------------------------------------------|
--====-====-====-====-====-====-====------------------------------|
--2222-2222-2222-2222-2222-2222-2222--5-------5------5------5-----|
--0000-0000-0000-0000-0000-0000-0000----3-0-----3-0----3-0----3-0-|
Tap to rate this tab
 
# A B C D E F G H I J K L M N O P Q R S T U V W X Y Z