Song name
# A B C D E F G H I J K L M N O P Q R S T U V W X Y Z

Marilyn Manson - Cake And Sodomy tab

Cake And Sodomy
Marilyn Manson

Intro
-12-------------------------------------------------------|
-whammy-------------------volume-swell---------harmonics--|
-bar------14--------------(0)------------------(5)--------|
----------wb--------------(0)--------------99-------------|
--------------------------(0)--------------99-------------|
-------------------------------------------77-------------|


Intro
-----------------------------------------------------------|
-------h.--------------------------------------------------|
------(5)---------------------------long-------------------|
-99-------99----9-99----------------rest-------------harm.-|
-99-------99------99-----------------------------------(7)-|
-77-------77------77--2--/7----77----------------------(7)-|


Verse one
-----------------------------------------|
-----------------------------------------|
----------harm.----------------harm.-----|
-9-9-\--(5-5-5-5-5)--9-9-\---(5-5-5-5-5)-|
-9-9-\---------------9-9-\---------------|
-7-7-\---------------7-7-\---------------|


Verse one, Play two times
|-------------------------------------------|
|:------------------pm---------pm----------:|
|-------------------=====------=====--------|
|---9-9-----99999---77777------44444--------|
|:--9-9-----xxxxx---77777------44444-------:|
|---7-7-\2/-77777---55555-7-5\-22222-5-2/---|


Verse one
---------------------------------------------------------------|
---------------------------------------------------------------|
-----------------------------7-----------11-11-11-11-11-11-11\-|
--9-9-----9999----7-7\4/7-4--x----9-9---x-9--9--9--9--9--9--9\-|
--9-9-----xxxx----x-x\x/x-x--5----9-9-x-x----------------------|
--7-7-\2/-7777----5-5\2/5-2-------7-7-x------------------------|


Verse one
------------------------------------|
------------------------------------|
-9-9-\--6-666-----------------------|
-7-7-\--4-444-777-7-\--7////--------|
--------------555-7-\--7////--------|
------------------5-\---------------|


CHORUS 1
------------------harm------------------------|
------------------(7)-------------------------|
------------------(7)----------------------77-|
--9-9--XXXX--7-7-------2^444-2^444-=-777---77-|
--9-9--XXXX--7-7-------2^444-2^444-x-777-x-55-|
--7-7--------5-5-------0^222-0^222-x-555-x-55-|


CHORUS 1
----------------------7^5-5\--------------------------|
----------------------7^5-5\--------------------------|
--------------------------------------------777-------|
--9-9-*----------7-7----------2^444-2^444---777---77\-|
--9-9-x\---------7-7----------2^444-2^444-x-555-x-77\-|
--7-7-x\---------5-5----------0^222-0^222-x-----x-55\-|
      *Pick slide

CHORUS 1
------------------harm------------------------|
------------------(7)-------------------------|
------------------(7)----------------------77-|
--9-9--XXXX--7-7-------2^444-2^444-=-777---77-|
--9-9--XXXX--7-7-------2^444-2^444-x-777-x-55-|
--7-7--------5-5-------0^222-0^222-x-555-x-55-|


CHORUS 1
----------------------7^5-5\--------------------------|
----------------------7^5-5\--------------------------|
--------------------------------------------777-------|
--9-9-*----------7-7----------2^444-2^444---777---77\-|
--9-9-x\---------7-7----------2^444-2^444-x-555-x-77\-|
--7-7-x\---------5-5----------0^222-0^222-x-----x-55\-|
      *Pick slide


Chorus 1 outro
--------------|
--------------|
--------------|
-9-let--------|
-9-ring-------|
-7------------|



Verse two
----------------(7)-(5)------------------==--------|
------------(7)-------------(7)-(5)---==-10---10\--|
------------harmonics---(7)-----------11----x------|
--9-9-\--------------------------------------------|
--9-9-\--------------------------------------------|
--7-7-\--------------------------------------------|


Verse two
---------12\\\------(7)-(5)------------------==--------|
---------slow---(7)-------------(7)-(5)------10---10\--|
---------slide--harmonics---(7)-----------x-----x------|
-9-9-\-------------------------------------------------|
-9-9-\-------------------------------------------------|
-7-7-\-------------------------------------------------|


Verse two
---------------(5)----------------------------(5)-------|
-----------(7)-(5)-(7)---------------=-----------(5)----|
---------x-(7)-----(7)--------(9)----0---------------0--|
-9-9-\---x--harm.-------=====----(9)-0--=====-----------|
-9-9-\------------------77777-----------44444-----------|
-7-7-\------------------55555-----------22222-----------|


Verse two
---------------------------------------------(5)-------|
------------(7)---(7)---------------=-----------(5)----|
---------(7)(7)(7)(7)--------(9)----0---------------0--|
-9-9-\---------(7)-----=====----(9)-0--=====-----------|
-9-9-\-----------------77777-----------44444-----------|
-7-7-\-----------------55555-----------22222-----------|


Verse two
---------------(5)----------------------------(5)-------|
-----------(7)-(5)-(7)---------------=-----------(5)----|
---------x-(7)-----(7)--------(9)----0---------------0--|
-9-9-\---x--harm.-------=====----(9)-0--=====-----------|
-9-9-\------------------77777-----------44444-----------|
-7-7-\------------------55555-----------22222-----------|


Verse two
------------------------------------------------------------------------|
------------(7)---(7)---------------------------------------------------|
---------(7)(7)(7)(7)---------6666-------------14-14-14-----------------|
-9-9-\---------(7)------7-7\--4444-7777---7\\\-14-14-14-x-7//////-------|
-9-9-\------------------x-x--------5555---7\\\-12-12-12-x-7//////-------|
-7-7-\------------------5-5\--------------5-------------x-5//////-------|
                                          Slow              slow
                                           Slide             slide

CHORUS 2
------------------harm------------------------|
------------------(7)-------------------------|
------------------(7)----------------------77-|
--9-9--XXXX--7-7-------2^444-2^444-=-777---77-|
--9-9--XXXX--7-7-------2^444-2^444-x-777-x-55-|
--7-7--------5-5-------0^222-0^222-x-555-x-55-|


CHORUS 2
----------------------7\5-5\-------------------------------------------|
----------------------7\5-5\-------------------------------------------|
--------------------------------------------777------------------------|
--9-9-*----------7-7----------2^444-2^444---777---77--x-7-let-ring-----|
--9-9-x\---------7-7----------2^444-2^444-x-555-x-77--x-7--------------|
--7-7-x\---------5-5----------0^222-0^222-x-----x-55--x-5--------------|
      *Pick slide


BRIDGE
----------------------------------------------|
----------------------------------------------|
--333-33-3/-6-66---6----333-33-3/-6-66-8-8----|
--444-44-4/-7-77---7----444-44-4/-7-77-9-9----|
--xxx-xx-x/-x-xx---x----xxx-xx-x/-x-xx-x-x----|
--222-22-2/-5-55-0-5-0--222-22-2/-5-55-7-7-0--|


BRIDGE                                     Speed pick     Speed pick
-------------------------------------------8888888888-----11-11-11-11-11-|
-------------------------------------------------------------------------|
--666-66-6/9-99-99-9-9\6-66\-6/999-99\-66--------------99----------------|
--444-44-4/7-77-77-7-7\4-44\-4/777-77\-----------------------------------|
-------------------------------------------------------------------------|
-------------------------------------------------------------------------|


BRIDGE
----8888888888-----11-11-11-11-11--|
-----------------------------------|
66--------------99-----------------|
-----------------------------------|
-----------------------------------|
-----------------------------------|


CHORUS 3
------------------harm------------------------|
------------------(7)-------------------------|
------------------(7)----------------------77-|
--9-9--------7-7-------2^444-2^444-=-777---77-|
--9-9-X\-----7-7-------2^444-2^444-x-777-x-55-|
--7-7-X\-----5-5-------0^222-0^222-x-555-x-55-|
      *Pick slide


CHORUS 3
----------------------7\5-5\-------------------------------------------|
----------------------7\5-5\-------------------------------------------|
--------------------------------------------777------------------------|
--9-9-*----------7-7----------2^444-2^444---777---77--x-7-let-ring-----|
--9-9-x\---------7-7----------2^444-2^444-x-555-x-77--x-7--------------|
--7-7-x\---------5-5----------0^222-0^222-x-----x-55--x-5--------------|
      *Pick slide


CHORUS 3
------------------harm------------------------|
------------------(7)-------------------------|
------------------(7)----------------------77-|
--9-9--------7-7-------2^444-2^444-=-777---77-|
--9-9-XXXX---7-7-------2^444-2^444-x-777-x-55-|
--7-7-XXXX---5-5-------0^222-0^222-x-555-x-55-|



CHORUS 3
----------------------7\5-5\-------------------------------------------|
----------------------7\5-5\-------------------------------------------|
--------------------------------------------777------------------------|
--9-9------------7-7----------2^444-2^444---777---77--x-7-7------------|
--9-9-XXXX-------7-7----------2^444-2^444-x-555-x-77--x-7-7------------|
--7-7-XXXX-------5-5----------0^222-0^222-x-----x-55--x-5-5\-----------|
                                                          SLIDE INTO
                                                          OBLIVION
Tap to rate this tab
 
# A B C D E F G H I J K L M N O P Q R S T U V W X Y Z