Song name
# A B C D E F G H I J K L M N O P Q R S T U V W X Y Z

Marilyn Manson - Organ Grinder tab

Marilyn Manson
Organ Grinder


intro
-------------------------(7)-----------------------(7)--------------|
--HARM-------------------(7)-----------------------(7)--------------|
--(7)---------------------HARM---------------------HARM-------------|
--(7)-------------2-------V.S.-------2--------------V.S.------------|
--VOL. SWELL------2------------------2------------------------------|
------------------0------------------0------------------------------|


|------------------------------------------------|
|:----------------------------------------------:|
|-------------------------------9-9\-------------|
|----9-X-7/9-9----9-X--12\9-----9-9\-------------|
|:-=-7-X-5/7-7--=-7-X--10\7---=-7-7\--5555-8888-:|
|--0---X--------0---X---------0-------3333-6666--|


|----------------------------------------------|---------------------|
|:--------------------------------------------:|------------PM-------|
|-----9-77-7/9---9-12-12-12\9----99------------|----REST----======---|
|-----9-77-7/9---9-12-12-12\9----88------------|----FOR-----XXXXXXXX-|
|:--=----------=------------------------------:|----VERSE---XXXXXXXX-|
|---0----------0--------------00-----333-6666\-|------------00000000-|


verse
|---------------------------------------------|
|:-------------------------------------------:|
|---------------------------------------------|
|----9---9------9---9------9---9\-------------|
|:-=-7-=-7----=-7-=-7----=-7-=-7\--5555-8888-:|
|--0-7-0-0----0-7-0-0----0-7-0-0---3333-6666--|


Break, 2Xs
|-------------------|
|:-------------(5)-:|
|--9--------(5)(5)--|
|--9--------(5)-----|
|:-7---------------:|
|--0----------------|


verse
|---------------------------------------------|
|:-------------------------------------------:|
|---------------------------------------------|
|----9---9------9---9------9---9\-------------|
|:-=-7-=-7----=-7-=-7----=-7-=-7\--5555-8888-:|
|--0-7-0-7----0-7-0-7----0-7-0-7\--3333-6666--|


Little lead fill during verse, clean tone
----------^^^^-----------------------------------------------------|
-----8-10^bend-----------------------------------------------------|
---9---------------------------------------------------------------|
-------------------------------------------------------------------|
-------------------------------------------------------------------|
-------------------------------------------------------------------|


Break, 2Xs
|-------------------|
|:-------------(5)-:|
|--9--------(5)(5)--|
|--9--------(5)-----|
|:-7---------------:|
|--0----------------|
|
|
|keyboard part translated into guitar
|---13---------------------16-------------13------------------16-----|
|------14---------------------17-------------14------------------17--|
|--------------------------------------------------------------------|
|--------------------------------------------------------------------|
|--------------------------------------------------------------------|
|--------------------------------------------------------------------|


Chorus, Here is my real head
|----------------------------------------------------|
|:--------------------------------------------------:|
|---------/13-13-13-13-13-13-13-13-------------------|
|--7-777--/12-12-12-12-12-12-12-12---7--777----------|
|:-5-555--/11-11-11-11-11-11-11-11---5--555-7\6-7\6-:|
|-------------------------------------------5\4-5\4--|


Chorus, I wear this fucking mask because you cannot handle me
|-------------------------------|----------------------------|
|:-----------------------------:|----------------------------|
|--77777---------77777----------|----------------------------|
|--77777---------77777----------|----2-----------------------|
|:-55555-5/6-5/6-55555-7\6-7\6-:|----2-----------------------|
|--------3/4-3/4-------5\4-5\4--|----0-----------------------|


|------------^^^^----|--6^7-6^7-----|
|:---------7^bend^7-:|--------------|
|---9^7--------------|--------------|
|-------8------------|----------4/5-|
|:------------------:|--------------|
|--------------------|--------------|


|------------^^^^----|--6^7-6^7-----|
|:---------7^bend^7-:|--------------|
|---9^7--------------|--------------|
|-------8------------|----------4/5-|
|:------------------:|--------------|
|--------------------|--------------|


verse
|---------------------------------------------|
|:-------------------------------------------:|
|---------------------------------------------|
|---------------------------------------------|
|:-=-7-=-7----=-7-=-7----=-7-=-7\--5555-8888-:|
|--0-7-0-0----0-7-0-0----0-7-0-0---3333-6666--|


Chorus, Here is my real head
|----------------------------------------------------|
|:--------------------------------------------------:|
|---------/13-13-13-13-13-13-13-13-------------------|
|--7-777--/12-12-12-12-12-12-12-12---7--777----------|
|:-5-555--/11-11-11-11-11-11-11-11---5--555-7\6-7\6-:|
|-------------------------------------------5\4-5\4--|


Chorus, I wear this fucking mask because you cannot handle me
|-------------------------------|----------------------------|
|:-----------------------------:|----------------------------|
|--77777---------77777----------|----7-----------------------|
|--77777---------77777----------|----8-----------------------|
|:-55555-5/6-5/6-55555-7\6-7\6-:|----7-----------------------|
|--------3/4-3/4-------5\4-5\4--|----0-----------------------|


|------------^^^^----|--6^7-6^7----|
|:---------7^bend^7-:|-------------|
|---9^7--------------|-------------|
|-------8------------|-----------0-|
|:------------------:|-------------|
|--------------------|-------------|


|------------^^^^----|--6^7-6^7----|
|:---------7^bend^7-:|-------------|
|---9^7--------------|-------------|
|-------8------------|-----------0-|
|:------------------:|-------------|
|--------------------|-------------|


|---------^^^^--|---------12---------------------------------------|
|:---8-10^bend-:|--------------------------------------------------|
|--9------------|--------------------------------------------------|
|---------------|--------------------------------------------------|
|:-------------:|--------------------------------------------------|
|---------------|--------------------------------------------------|


Chorus, Here is my real headů
|----------------------------------------------------|
|:--------------------------------------------------:|
|---------/13-13-13-13-13-13-13-13-------------------|
|--7-777--/12-12-12-12-12-12-12-12---7--777----------|
|:-5-555--/11-11-11-11-11-11-11-11---5--555-7\6-7\6-:|
|-------------------------------------------5\4-5\4--|


Chorus, Here is my real headů
|-------------------------------|
|:-----------------------------:|
|--77777---------77777----------|
|--77777---------77777----------|
|:-55555-5/6-5/6-55555-7\6-7\6-:|
|--------3/4-3/4-------5\4-5\4--|



Chorus, I wear this fucking mask because you cannot handle me
|-------------------------------|
|:-----------------------------:|
|--77777---------77777----------|
|--77777---------77777----------|
|:-55555-5/6-5/6-55555-7\6-7\6-:|
|--------3/4-3/4-------5\4-5\4--|



|----------------------------------------------------|
|:--------------------------------------------------:|
|---------/13-13-13-13-13-13-13-13-------------------|
|--7-777--/12-12-12-12-12-12-12-12---7--777----------|
|:-5-555--/11-11-11-11-11-11-11-11---5--555-7\6-7\6-:|
|-------------------------------------------5\4-5\4--|



|-------------------------------|--------------------------|
|:-----------------------------:|--------------------------|
|--77777---------77777----------|--------------------------|
|--77777---------77777----------|--2-LET INTO NOTHINGNESS!-|
|:-55555-5/6-5/6-55555-7\6-7\6-:|--2-----------------------|
|--------3/4-3/4-------5\4-5\4--|--0-----------------------|
Tap to rate this tab
 
# A B C D E F G H I J K L M N O P Q R S T U V W X Y Z