Marilyn Manson - I Want To Disappear tab

-------------------------------------------------------------------------------
			     I WANT TO DISAPPEAR - Marilyn Manson
-------------------------------------------------------------------------------
Tabbed by: ironmanben
Email: bentrooper@gmail.com

Tuning: e B G D A D


guitar 1 - Twiggy Ramirez - lead
guitar 2 - Twiggy Ramirez - rhythm


main riff:
e|-----------------------------------------|
B|-----------------------------------------|
G|-----------------------------------------|
D|--------------------6-6-6-6-6^(7)6^(8)-1-|
A|-----1---------------------------------1-|
D|-1-1---1-4-1-3^-1------------------------|
-|                                         |
e|-----------------------------------------|
B|-----------------------------------------|
G|-----------------------------------------|
D|-----------------------------------------|
A|-----1--------------4-4-4-4-4^(5)4^(6)4pb(6)|
D|-1-1---1-4-1-3^-1------------------------|


pre-chorus:
e|-----------------------------------------------------------------|
B|-----------------------------------------------------------------|
G|-14------------------------------11------------------------------|
D|-x-------------------------------x-------------------------------|
A|-12------------------------------9-------------------------------|
D|-----------------------------------------------------------------|
-| ^weird flange sort of effect, kind of bubbly.                   |
e|-----------------------------------------------------------------|
B|-----------------------------------------------------------------|
G|-----------------------------------------------------------------|
D|-7-------------------------------4-------------------------------|
A|-0-------------------------------x-------------------------------|
D|---------------------------------4-------------------------------|


chorus part 1:
e|----------------------------------|
B|----------------------------------|
G|-8-8-8-8-6-8-8-11^------8-8-6-6-6-|
D|-8-8-8-8-6-8-8-11^------8-8-6-6-6-|
A|----------------------------------|
D|----------------------------------|
-|                                  |
e|----------------------------------|
B|----------------------------------|
G|-8-8-8-8-6/8-8----------8-8-6-6-6-|
D|-8-8-8-8-6/8-8-4^-------8-8-6-6-6-|
A|-6-6-6-6-4/6-6-4^-------6-6-4-4-4-|
D|---------------4^-----------------|


chorus part 2:
e|-----------------------------------------|
B|-----------------------------------------|
G|-9-9-9-9-9-9-9-9-6--6--6--6--6--6--6--6--|
D|-9-9-9-9-9-9-9-9-6--6--6--6--6--6--6--6--|
A|-----------------------------------------|
D|-----------------------------------------|
-|                                         |
e|-----------------------------------------|
B|-----------------------------------------|
G|-9-9-9-9-9-9-9-9-------------------------|
D|-9-9-9-9-9-9-9-9-11-11-11-11-11-11-11-11-|
A|-7-7-7-7-7-7-7-7-11-11-11-11-11-11-11-11-|
D|-----------------11-11-11-11-11-11-11-11-|



bridge 1:
e|-----------------------------------------------------------------|
B|-----------------------------------------------------------------|
G|-8-8-8-8-6-8-8-8-4-4-4-4-4-4-4-4-6-6-6-6-6-6-6-6-----------------|
D|-8-8-8-8-6-8-8-8-4-4-6-4-4-4-4-4-6-6-8-6-6-6-6-6-6-6-6-6-6-6-6-6-|
A|-------------------------------------------------6-6-6-6-6-6-6-6-|
D|-----------------------------------------------------------------|
-|                                                                 |
e|-----------------------------------------------------------------|
B|-----------------------------------------------------------------|
G|-8-8-8-8--/8-8-8-----------------6-6-6-6-6-6-6-6-----------------|
D|-8-8-8-8-6/8-8-8-9-9-9-9-9-9-9-9-6-6-6-6-6-6-6-6-6-6-6-6-6-6-6-6-|
A|-6-6-6-6-4/6-6-6-9-9-9-9-9-9-9-9-4-4-4-4-4-4-4-4-6-6-6-6-6-6-6-6-|
D|-----------------9-9-9-9-9-9-9-9-----------------6-6-6-6-6-6-6-6-|



bridge 2:
e|-----------------------------------------------------------------|
B|-----------------------------------------------------------------|
G|-----------------------------------------------------------------|
D|-1-1-6-8-------------------------1-1-1-1-------------------------|
A|-1-1-4-6-------------------------1-1-1-1-------------------x-x-x-|
D|-----------------------------------------------------------x-x-x-|
-|                                                                 |
e|-----------------------------------------------------------------|
B|-----------------------------------------------------------------|
G|-----------------------------------------------------------------|
D|-1-1-1-1-------------------------1-1-1-1-------------------------|
A|-1-1-1-1-------------------------1-1-1-1-------------------1-1-1-|
D|-1-1-1-1-------------------------1-1-1-1-------------------1-1-1-|
                                                             x x x 

e|-----------------------------------------------------------------|
B|-----------------------------------------------------------------|
G|-----------------------------------------------------------------|
D|-1-1-6-8-------------------------1-1-1-1-------------------------|
A|-1-1-4-6-------------------------1-1-1-1-------------------------|
D|-----------------------------------------------------------------|
-|                                                                 |
e|-----------------------------------------------------------------|
B|-----------------------------------------------------------------|
G|-----------------------------------------------------------------|
D|-1-1-1-1-------------------------1-1-1-1-------------------------|
A|-1-1-1-1-------------------------1-1-1-1-------------------------|
D|-1-1-1-1-------------------------1-1-1-1-------------------------|


bridge 3:
e|-----------------------------------------------------------------|
B|-----------------------------------------------------------------|
G|-----------------------------------------------------------------|
D|-7-7-7-7---7-------7-----7-7-7-------4-4---4-4-4-4-----4-4-4-4-4-|
A|-----------------------------------------------------------------|
D|-7-7-----7-----7-7-----7-------7\4-4-----4---------4-4-----------|
-|                                                                 |
e|-----------------------------------------------------------------|
B|-----------------------------------------------------------------|
G|-----------------------------------------------------------------|
D|-7+-------------------------(7+)-----4-6-7-7-7-7-----4-6-7-7-7-7-|
A|-----------------------------------------------------------------|
D|-----------------------------------------------------------------|

e|-----------------------------------------------------------------|
B|-----------------------------------------------------------------|
G|-----------------------------------------------------------------|
D|-7-7-7-7---7-------7-----7-7-7-------4-4---4-4-4-4-----4-4-4-4-4-|
A|-----------------------------------------------------------------|
D|-7-7-----7-----7-7-----7-------7\4-4-----4---------4-4-----------|
-|                                                                 |
e|-----------------------------------------------------------------|
B|-----------------------------------------------------------------|
G|-----------------------------------------------------------------|
D|-----4-6-7-7-7-7-----4-6-7-7-7-7-----4-6-7-7-7-7-----4-6-7-7-7-7-|
A|-----------------------------------------------------------------|
D|-----------------------------------------------------------------|

e|-----------------------------------------------------------------|
B|-----------------------------------------------------------------|
G|-----------------------------------------------------------------|
D|-7-7-7-7---7-------7-----7-7-7-------4-4---4-4-4-4-----4-4-4-4-4-|
A|-----------------------------------------------------------------|
D|-7-7-----7-----7-7-----7-------7\4-4-----4---------4-4-----------|
-|                                                                 |
e|-----------------------------------------------------------------|
B|-----------------------------------------------------------------|
G|-----------------------------------------------------------------|
D|-----4-6-7-7-7-7-----4-6-7-7-7-7-----4-6-7-7-7-7-----4-6-7-7-7-7-|
A|-----------------------------------------------------------------|
D|-----------------------------------------------------------------|



outro:
e|---------|
B|---------|
G|-8-8-8-8-|
D|-8-8-8-8-|
A|---------|
D|---------|
-|         |
e|---------|
B|---------|
G|---------|
D|-1-1-1-1-|
A|-1-1-1-1-|
D|-1-1-1-1-|
                                                              

Order:
main riff x4 (guitar 1 only)
main riff x8 (both guitars)
pre-chorus 
chorus part 1 x3
chorus part 2
bridge 1
bridge 2
main riff x4 (guitar 1 only)
main riff x3 (both guitars)
pre-chorus 
chorus part 1 x3
chorus part 2 
bridge 1
bridge 2
bridge 3 with whammy bar and scratching noises
chorus part 1 x3
chorus part 2 
bridge 1
outro

 

 
************************************

| /   slide up
| \   slide down
| h   hammer-on
| p   pull-off
| ~   vibrato
| +   harmonic
| x   Mute note
| b   Bend
| pb  Pre-bend
| br  Bend release
| pbr Pre-bend release
| brb Bend release bend

************************************
Tap to rate this tab
 
# A B C D E F G H I J K L M N O P Q R S T U V W X Y Z