Song name
# A B C D E F G H I J K L M N O P Q R S T U V W X Y Z

Marilyn Manson - Cyclops tab

Marilyn Manson
Cyclops



INTRO
|------------0------------|---------------------------------------------------|
|:---0---0-------0---0-1-:|--------8------8----8-------5------5----5------7---|
|--2---2---2---2---2------|---PM---5------5----5-------5------5----5------5---|
|-------------------------|---====-7-====-7-==-7--====-7-====-7-==-7-====-7---|
|:-----------------------:|---0000---0000---00----0000---0000---00---0000-----|
|-------------------------|---------------------------------------------------|



-------------------8------8----8---|
------7----7-------5------5----5---|
------5----5-------5------5----5---|
-====-7-==-7--====-7-====-7-==-7---|
-0000---00----0000---0000---00-----|
-----------------------------------|



-------------------------------------------------------------------------------|
---------------------------------------------------------0---------------------|
---------------------------------------------------------0---------------------|
----------------------------5--------------------------------------------------|
---2222-3-2-------2222-2-2--3---2222-3-2-------2222-2-2------2222-3-2----------|
---0000-1-0-------0000-1-0--3---0000-1-0-------0000-1-0------0000-1-0----------|



-------------------------------------------------------------------|
-------------------------------------------------------------------|
------------------------------------------6------------------------|
------------5-----------------------------5------------------------|
--2222-2-2--3-----2222-3-2------2222-2-2---------------------------|
--0000-1-0--3-----0000-1-0------0000-1-0---------------------------|



CHORUS: This chorus is a fucking nightmare of bad quality recording
So I did the best I could with just a simple media player, but this
Is what I think I am hearing so bear with me here while I try to work
With what I got, which is only this computer and an acoustic guitar.
|---------------------------|--------------------------------------|
|:-------------------------:|--------------------------------------|
|--0^222--0^22-0^2222----2--|--------------------------------------|
|--0^222--0^22-0^2222-22-1--|--------------------------------------|
|:-0--00--0--0-0--000-00---:|--2222-3-2---------2222-3-2-----------|
|---------------------------|--0000-1-0---------0000-1-0--7^8\3----|



-------------------------------------------------------------------------------|
---------------------------------------------------------0---------------------|
---------------------------------------------------------0---------------------|
----------------------------5--------------------------------------------------|
---2222-3-2-------2222-2-2--3---2222-3-2-------2222-2-2------2222-3-2----------|
---0000-1-0-------0000-1-0--3---0000-1-0-------0000-1-0------0000-1-0----------|



-------------------------------------------------------------------|
------------------------------------------0------------------------|
------------5-----------------------------6------------------------|
------------5-----------------------------5------------------------|
--2222-2-2--3-----2222-3-2------2222-2-2---------------------------|
--0000-1-0--3-----0000-1-0------0000-1-0---------------------------|



CHORUS
|---------------------------|--------------------------------------|
|:-------------------------:|--------------------------------------|
|--0^222--0^22-0^2222----2--|--------------------------------------|
|--0^222--0^22-0^2222-22-1--|------------------------------5-------|
|:-0--00--0--0-0--000-00---:|--2222-3-2---------2222-2-2---3-------|
|---------------------------|--0000-1-0---------0000-1-0---3-------|



-------------------------------------------------------------------|
------------------------------------0------------------------------|
------------------------------------0------------------------------|
-------------------------------------------------------------------|
----2222-3-2-------------2222-2-2----------------------------------|
----0000-1-0-------------0000-1-0----------------------------------|



-------------------------------------------------------------------|
-------------------------------------------------------------------|
-------------------------------------------------------------------|
----WITH SOME KINDA EFFECT PEDAL-----------------------------------|
----0--------0-----------0----------0---------0------0-------0-----|
-------------------------------------------------------------------|



-------------------------------------------------------------8------8----8-|
-----8------8----8------5------5----5------7------7----7-----5------5----5-|
-----5------5----5------5------5----5------5------5----5-----5------5----5-|
====-7-====-7-==-7-====-7-====-7-==-7-====-7-====-7-==-7-====7-====-7-==-7-|
0000---0000---00---0000---0000---00---0000---0000---00---0000--0000---00---|
---------------------------------------------------------------------------|



-----17-15-----------------------------------^---------------------------------|
-----------17-17-17-17-17--13-------------12^-^BEND----------------------------|
--17--------------------------14-14-14--14------14-12-14--------12-------------|
----------------------------------------------------------14-15----14\77799-10-|
-------------------------------------------------------------------------------|
-------------------------------------------------------------------------------|



-----------------15-12^10^12---------------------------------------------------|
----------------------------------------------------------------------13--13---|
--------------14------------10--10--10----------------10--10--10/16-16--16--16-|
10-7\-------------------------14--14--14-10--10--10-----14--14-----------------|
------8\5/10\------------------------------14--14--14--------------------------|
-------------------------------------------------------------------------------|



-----------------------------------------13--13--13--12-----------------------|
13---------------------13\---13--13----17--17--17--17---13-13\/13\------------|
--16--14\9/14\9/14\9-12---/12--12--12/----------------------------------------|
------------------------------------------------------------------------------|
------------------------------------------------------------------------------|
------------------------------------------------------------------------------|



-------------------------------------------------------------------|
--------------------------------------------------------------0----|
--------------------------------------------------------------0----|
-----------xxxxxxxx------------5-----------xxxxxxxx-----------5----|
--2222-3-2-xxxxxxxx--2222-2-2--3--2222-3-2-xxxxxxxx--2222-2-2------|
--0000-1-0-xxxxxxxx--0000-1-0--3--0000-1-0-xxxxxxxx--0000-1-0------|



OUTRO: your guess is as good as mine with this climb, good luck!
-----------------------------------------------------------------------|
--(0)------------------------------------------------------------------|
--(0)-------0---0----0---0---0--------0--------0--------0--9999-10-9---|
--(5)--------5---7----8---9----11-------12-------13----13\-9999-10-9---|
--------------4---6----7---8------10-------11------12--12\-7777--8-7---|
-----------------------------------------------------------0000----0---|
Tap to rate this tab
 
# A B C D E F G H I J K L M N O P Q R S T U V W X Y Z