Song name
# A B C D E F G H I J K L M N O P Q R S T U V W X Y Z

Marilyn Manson - The Love Song tab

Help us improve GuitareTab! Take a short survey!
Intro(bass arranged for guitar)

e|---------------------------------------------------|
b|---------------------------------------------------|
g|---------------------------------------------------|
d|---------------------------------------------------|
a|---------------------------------------------------|
d|-0-00-00-00---0-00-00-00---0-00-00-00---0-00-00-00-|

   Intro part 2 (guitar 1)    *bend is 1/4 up

e|---------------------------------------------------------------------|
b|---------------------------------------------------------------------|
g|---------------------------------------------------------------------|
d|---------------------------------------------------------------------|
a|---------------------------------------------------------------------|
d|-0-00-00-00-3^---0-00-00-00-3^---0-00-00-00-3^---0-00-00-00-3^-------|

  chorus x4
e|-------------------------------|
b|-------------------------------|
g|-------------------------------|
d|-6-0---0-3-5-----6-0---0-3-5-3-|
a|-6-0---0-3-5-----6-0---0-3-5-3-|
d|-6-0---0-3-5---0-6-0---0-3-5-3-|

    verse part 1
e|---------------|------------------------------------|
b|---------------|------------------------------------|
g|---------------|---------rest for 2 measures--------|
d|-0-------------|------------------------------------|
a|-0-------------|------------------------------------|
d|-0-------------|------------------------------------|

e|---------------------------------------------------------------------|
b|---------------------------------------------------------------------|
g|---------------------------------------------------------------------|
d|-0--0--0---0---2---2---2---2----3---3--3--3///7--7---7-7-7-7---------|
a|-0--0--0---0---2---2---2---2----3---3--3--3///7--7---7-7-7-7---------|
d|-0--0--0---0---2---2---2---2----3---3--3--3///7--7---7-7-7-7---------|

   intro part 2 x4
e|---------------------------------------------------------------------|
b|---------------------------------------------------------------------|
g|-7--7--7---7---9--9--9--9---10-10-10-10\\\2--2--2--2/----------------|
d|---------------------------------------------------------------------|
a|---------------------------------------------------------------------|
d|---------------------------------------------------------------------|

                         play chorus 4x then

      interlude
e|---------------------------------------------------------------------|
b|---------------------------------------------------------------------|
g|---------------------------------------------------------------------|
d|-7--7--7--7---9--9--9--9---10--10--10--10\\\2--2--2--2--2------------|
a|-x--x--x--x---x--x--x--x----x---x---x---x------x--x--x--x------------|
d|-9--9--9--9---7--7--7--7----8---8---8---8\\\0--0--0--0--0------------|

e|---------------------------------------------------------------------|
b|---------------------------------------------------------------------|
g|---------------------------------------------------------------------|
d|-0-0-0-0--0--------0---2-2-2-2-2-2-2-2------3-3-3-3---3.4------3.4---|
a|-0-0-0-0---------------2-2-2-2-2-2-2-2------3-3-3-3------------------|
d|-0-0-0-0-----0--0------2-2-2-2-2-2-2-2--0---3-3-3-3--------3-3-------|

e|---------------------------------------------------------------------|
b|---------------------------------------------------------------------|
g|---------------------------------------------------------------------|
d|----------7-------7--------------------------------------------------|
a|---------------------------------------------------------------------|
d|-7-7-7-7-----7-7-----10-10-10-10-10-10-10-10--12-12-12-12-12-12-12-12|


e|---------------------------------------------------------------------|
b|---------------------------------------------------------------------|
g|---------------------------------------------------------------------|
d|---------------------------------------------------------------------|
a|---------------------------------------------------------------------|
d|-13--13-13-13-13-13-13---17-17-17-17-17-17-17-17---------------------|


                     then play chorus 4x
Related for The Love Song tab