Song name
# A B C D E F G H I J K L M N O P Q R S T U V W X Y Z

Marilyn Manson - Disassociative tab

I believe this is a lil better descriptions than the other it quite easy so enjoy

clean with phaser
---------0---------------------------------|
-----------0-------------------------------|
-------------------7-----------------------|
--------------0--7-------------------------|
--0--7---------------10--------------------|
---------------------10--------------------|

------------------------------------------|
---------0--------------------------------|
-------0----------------------------------|
-----0--------3---3-----------------------|
--2---------3----------9---7--7-----------|
-----------------------9---7--7-----------|
with distortion
----------------------------------------|
----------------------------------------|
----------------------------------------|
----------------------------------------|   x2
----9----7----5---5---------------------|
----9----7----5---5---------------------|

repeat each note 8 times with distortion
-------------------------------------------------------------------------|
-------------------------------------------------------------------------|
-------------------------------------------------------------------------|
--3---7---10----------------------------   reapeat x2 at second play 775-| only once
--3---7---10-------------------------------------------------------------|
--1---5----8-------------------------------------------------------------|


chorus:

and thats it great song for you people to enjoy its kinda easy so have fun ya'll can email me at 
for any comments or corrections
Tap to rate this tab
 
# A B C D E F G H I J K L M N O P Q R S T U V W X Y Z