Guitaretab - guitar tabs
Song name
# A B C D E F G H I J K L M N O P Q R S T U V W X Y Z

Marilyn Manson - Cake And Sodomy tab

brought to you by:     ZAC s.
Artist: Marilyn Manson
Song: Cake and Sodomy

\= slide down
/=slide up
h= harmonic

Ok, so the song starts with a bass riff and some harmonics, i haven't tabbed them 'cos i
bercowiz just improvises them.

Then you get the first verse:
------------------------|-10---10---10-10-10-|
------------------------|--------------------|
------------------------|--------------------|
------------------------|--------------------|
-9-9-\4-4---------------|--------------------|
-7-7-\2-----------------|--------------------|
virgins sold in quantity  herded by heredity
redneck-burnout...               isn't kind?

Interlude x 2:
-------------------------------------------------- |
-------------------------------------------------- |
-------------------------------------------------- |
-------------------------------------------------- |
-9-9-9-\4/-9-9-9-9-7-7-7-7-7-----4-4-4-4-4-------- |
-7-7-7-\2/-7-7-7-7-5-5-5-5-5-7-5-2-2-2-2-2-5-2---- |

------------------------------------------------|
------------------------------------------------|
------------------------------------------------|
------------------------------------------------|
-9-9-9-\4/-9-9-9-9-7-7-7-7-7-7-4-4-4-12-12-12---|
-7-7-7\2/-7-7-7-7-5-5-5-5-5-5-2-2-2-10-10-10---|
pornonation, evaluation...
libido, libido...

chorus x 2:
---------------------10-------------------------------------|
---------------------10-------------------------------------|
------------------------------------------------------------|
------------------------------------------------------------|
-9-9--X-X-X-X--7-7------4-4-4-4-4-4-4-4-7-7-7-7-12-12-12-12-|
-7-7--X-X-X-X--5-5------2-2-2-2-2-2-2-2-5-5-5-5-10-10-10-10-|

------------------------------------------------------------|
---------------12-10-10-------------------------------------|
---------------11-9--9--------------------------------------|
------------------------------------------------------------|
-9-9--X\---7-7----------4-4-4-4-4-4-4-4-7-7-7-7-12-12-12-12-|
-7-7--X\---5-5----------2-2-2-2-2-2-2-2-5-5-5-5-10-10-10-10-|
[ Tab from: http://www.guitaretab.com/m/marilyn-manson/27001.html ]
verse2:
-----------------------|---------h24---------h19--X-X-X-X\--|
-----------------------|-----h24---------h19------X-X-X-X\--|
-----------------------|-h24---------h19----------X-X-X-X\--|
-----------------------|------------------------------------|
-9-9-\4----------------|------------------------------------|
-7-7-\2----------------|------------------------------------|
VCR's and vaseline...
Cash in hand...

Interlude x 2:
--------------h21----------h19-----------h24---------------|
----------h19-----h19----------h19-----------h24-----------|
------h19--------------------------------------------------|
-----------------------------------------------------------|
-9-9------------------7-7-----------4-4--------------------|
-7-7------------------5-5-----------2-2--------------------|

verse:
--------------h21----------h19-----------h24---------------|
----------h19-----h19----------h19-----------h24-----------|
------h19--------------------------------------------------|
-----------------------------------------------------------|
-9-9------------------7-7-----------4-4--------------------|
-7-7------------------5-5-----------2-2--------------------|
bible-belt 'round...

--------------h21------------------------------------------|
----------h19-----h19--------------------------------------|
------h19--------------------------------------------------|
-----------------------------------------------------------|
-9-9------------------7-7-7-7-7-7-7-7-4-4-4-4-12-12-12-12--|
-7-7------------------5-5-5-5-5-5-5-5-2-2-2-2-10-10-10-10--|
yeah, right great...

Chorus

This is the solo, bercowiz uses wha and flanger pedals so it may sound a bit different then
the record:
---------------------------------------------------------------------------|
---------------------------------------------------------------------------|
---------------------------------------------------------------------------|
---------------------------------------------------------------------------|
---------------------------------------------------------------------------|
-2--2--2--2--2--2/5--5--5--5--0--5--0--2--2--2--2--2--2/5--5--5--5/7--7--0-|

---------------------------------------------------------------------------|
---------------------------------------------------------------------------|
--------------------------------------------------------------5--------8---|
-----------------------------------------------------------4--------7------|
--------------------------------------------------------4--------7-------4-|
-2--2--2--2--2--2/5--5--5--5--0--5--0--2--2--2--2--5--5--------------------|

--------------|
--------------|
----5--------8|
-4--------7---|
-------7------|
--------------|

then go back to the Chorus
Related for Cake And Sodomy tab