Song name
# A B C D E F G H I J K L M N O P Q R S T U V W X Y Z

Marilyn Manson - Sweet Dreams tab

Guitar 2(rythum guitar) Sorry if i messed up on the tabs at all this is my first 
tab...if there are any mistakes can you tell me? thx.

key:
/=slide


E|-----------------------------|
G|-----------------------------|
B|-----------------------------|
D|------5--6--5----------------|
A|--3-3---3--3--3----6/8---5/6-| x10
E|----------------4-4---3-3----|

E|---------------------------------------------|
G|---------------------------------------------|
B|-------------5-5-(x8)------------------------|
D|-------------3-3-(x8)------------------------|
A|-6-(x18)-5-5----------6-(x7)/5/6-(x8)-5-(x7)-|
E|-4-(x18)-3-3----------4-(x7)/3/4-(x8)-3-(x7)-|

E|----------------------------|
G|----------------------------|
B|----------------------------|
D|----5--6--5-----------------|  x12
A|-3-3--3--3--3----6/8---5/6--|
E|--------------4-4---3-3-----|

E|--------------------------------------------|
G|--------------------------------------------|
B|------------5-5-(x8)------------------------|
D|------------3-3-(x8)------------------------|
A|-6-(x18)-5-5---------6-(x7)/5/6-(x8)-5-(x7)-|
E|-4-(x18)-3-3---------4-(x7)/3/4-(x8)-3-(x7)-|

E|----------------------------|
G|----------------------------|
B|----------------------------|
D|----5--6--5-----------------|  x4
A|-3-3--3--3--3----6/8---5/6--|
E|--------------4-4---3-3-----|

E|----------------------------|
G|----------------------------|
B|----------------------------|
D|----5--6--5-----------------|  x4
A|-3-3--3--3--3----6/8---5/6--|
E|--------------4-4---3-3-----|

E|-------------------------------------------------------------------------------|
G|-------------------------------------------------------------------------------|
B|-------------5-5-(x8)----------------------------------------------------------|
D|-------------3-3-(x8)----------------------------------------------------------|
A|-6-(x18)-5-5----------6-(x7)/5/6-(x8)-5-(x7)-6-(x8)-5-(x8)-6-(x8)-5/1-3/1--0---|
E|-4-(x18)-3-3----------4-(x7)/3/4-(x8)-3-(x7)-4-(x8)-3-(x8)-4-(x8)-5/1-3/1------|
-0-|
Tap to rate this tab
 
# A B C D E F G H I J K L M N O P Q R S T U V W X Y Z