Marilyn Manson - Rock And Roll Nigger tab

                              Marilyn Manson
                          "Rock and Roll Nigger"
                         Smells Like Children (1995)

                              Standard Tuning

there's already tabs for this song on here, but they just suck. its actually a pretty 
simple song. I'm not saying this is 100% correct, but its damn close, and sounds wayyyy 
better than the other tabs ive seen for it


KEY:  . -  Palm Mute      b - bend        * - harmonics (specified note)
      / - slide down      r - return
      = - Let Ring        x - harmonics


Intro
------------------|     -------------|
------------------|     -------------|
-------------9-9/-| (x3)-----7-------|
-------------9-9/-|     -----7-----7-|
-------------7-7/-|     -----5-----7-|
---0-0-0-0-0------|     ---0---0-0-5-|
   . . . . .              .   . .

(Pre-verse)
-----------------|
-----------------|
-----------------|
-----9===b-r-///-|
-----7===b-r-///-|
---0-------------|
   .

Verse 1 pt. 1       Verse 1 pt. 2
-------------|   --------------------------------|
-------------|   --------------------------------|
-----7-------|   ------------------------7-------|
-----7-----7-|   ------------------------7-----7-|
-----5-----7-|   ------------------------5-----7-|
---0---0-0-5-|   ---0-(about 24 times)-0---0-0-5-|
   .   . .         .                  .   . .

Chorus
----------------------------|
----------------------------|
---9========--7====---------|
---9========--7====--7====--|
---7========--5====--7====--|
---------------------5====--|

Verse 2
---------------------------------|
---------------------------------|
------------------------7--------|
------------------------7-----7--|
------------------------5-----7--|
---0-(about 24 times)-0---0-0-5--|
   .                  .   . .


Play the chorus again


(Play the pre verse before the bridge)

Bridge ("we will grow to hate you...")
---------------------|
---------------------|
---------------------|
---9*==--------------|
--------7*==--9*==---|
---------------------|

Play the chorus

Play Intro

Play Verse 1 pt. 1

Play the chorus

part before the end ("yeahhhhhhhhhhhhhhhhhhhhhhhh!"):
--------------------|
--------------------|
---9999999999999999-| etc
---9999999999999999-|
---7777777777777777-|
--------------------|

end
---------------------------------|
---------------------------------|
-----7---------------------------|
-----7-----7---9================-|
-----5-----7---7================-|
---0---0-0-5-0-------------------|
   .   . .   .
Tap to rate this tab
 
# A B C D E F G H I J K L M N O P Q R S T U V W X Y Z