Song name
# A B C D E F G H I J K L M N O P Q R S T U V W X Y Z

Marilyn Manson - God Eat God tab

By: Chris 7
E-mail: manson33@citromail.hu

---------------------------------------------------------------------------
                       Marilyn Manson – God, Eat God
---------------------------------------------------------------------------
[Intro/”Dear God...”]
E|-----------------------|-----------------------|------------------------|
H|6-6-5-5----------------|6-6-5-5----------------|6-6-5-5-----------------|
G|-7-7-7-7-4-6-7-6-6-7-6-|-7-7-7-7-4-6-7-6-6-7-6-|-7-7-7-7-4-6-7-6-6-7-6--|
D|----------------7------|----------------7------|----------------7-------|
A|-----------------------|-----------------------|------------------------|
E|-----------------------|-----------------------|------------------------|

E|-----------------------|-----------------------|------------------------|
H|6-6-5-5----------------|6-6-5-5----------------|6-6-5-5-----------------|
G|-7-7-7-7-4-6-7-6-6-7-6-|-7-7-7-7-4-6-7-6-6-7-6-|-7-7-7-7-4-6-7-6-6-7-6--|
D|----------------7------|----------------7------|----------------7-------|
A|-----------------------|-----------------------|------------------------|
E|-----------------------|-----------------------|------------------------|

[„Before the bullets...”]
E|------------------------------|-------------------------------|
H|------------------------------|-------------------------------|
G|------------------------------|-------------------------------| 
D|4-4-4-6-6-6-6-7-7-7-7-7-7-7-6-|4-4-4-4-6-6-6-6-7-7-7-7-7-7-7-6|
A|2-2-2-2-4-4-4-4-5-5-5-5-5-5-5-|4-2-2-2-2-4-4-4-4-5-5-5-5-5-5-5|
E|------------------------------|-------------------------------|

[„Dear God...” Part 2.]
E|---0--------------------|-----------------------|-----------------------|
H|6-6--5--5---------------|6-6-5-5----------------|6-6-5-5----------------|
G|-7-----7-7-4-6-7-6-6-7-6|-7-7-7-7-4-6-7-6-6-7-6-|-7-7-7-7-4-6-7-6—6-7-6-|
D|------------------7-----|----------------7------|----------------7------|
A|------------------------|-----------------------|-----------------------|
E|------------------------|-----------------------|-----------------------|

E|-----------------------|
H|6-6-5-5----------------|                 Symbol(s): ˘-Hold
G|-7-7-7-7-4-6-7-6-6-7-6-|
D|----------------7------|
A|-----------------------|
E|-----------------------|
[„Before the bullets...”Part 2.]
E|--------------------------------|--------------------------------|
H|--------------------------------|--------------------------------|
G|--------------------------------|--------------------------------| 
D|4-4-4-4-6-6-6-6-7-7-7-7-7-7-7-6-|4-4-4-4-6-6-6-6-7-7-7-7-7-7-7-6-|
A|2-2-2-2-4-4-4-4-5-5-5-5-5-5-5-4-|2-2-2-2-4-4-4-4-5-5-5-5-5-5-5-4-|
E|--------------------------------|--------------------------------|

[Ending]
E|---0˘---|
H|6-6-----|
G|-7------|
D|--------|
A|--------|
E|--------|



Tap to rate this tab
# A B C D E F G H I J K L M N O P Q R S T U V W X Y Z