Song name
# A B C D E F G H I J K L M N O P Q R S T U V W X Y Z

Marilyn Manson - Rock Is Dead tab

Hey everyone!

I've tabbed this out by ear, and I'm fairly sure that its 100% right, but if it isnt, or 
I missed a bit, just email me!I'm also fairly sure that it is just standard tuning, 
that's what I played it in and tabbed it out in too, so yeah. Good luck and keep on rocking!
raaptoorr@hotmail.com


INTRO
|---------------------------|
|---------------------------|
|---------------------------|
|-4-4-x-4-4-x-4-4-x-4-4--7--|  X4
|-4-4-x-4-4-x-4-4-x-4-4--7--|
|-2-2-x-2-2-x-2-2-x-2-2--5--|


Verse  ( BASS  )

|---------------------------------|
|---------------------------4-2---|
|-------------------------------4-|
|-2-2-2-2-2-2-2-5-2-2-2-2-2-------|


pre chorus ( ELECTRIC )

|----------------|
|----------------|
|-------5-----7--|
|-7-----5-----7--|   2x
|-7-----3-----5--|
|-5--------------|

chorus

|---------------|
|---------------|
|-9-7--9/-7-----|
|-9-7--9/-7-----|    2x
|-7-5--7/-5-----|
|---------------|


|--------------|
|--------------|
|-7--6--7/-6---|
|-7--6--7/-6---|     2x
|-5--4--5/-4---|
|--------------|


outro

|--------------|
|--------------|
|-6-6-6--9-9-9-|
|-6-6-6--9-9-9-|
|-4-4-4--7-7-7-|
|--------------|
Tap to rate this tab
 
# A B C D E F G H I J K L M N O P Q R S T U V W X Y Z