Song name
# A B C D E F G H I J K L M N O P Q R S T U V W X Y Z

Marilyn Manson - Sweet Dreams tab

Intro : 
E|-------------------------------------------|clean
G|-------------------------------------------|
B|-------------------------------------------|
D|--------5---6---5--------------------------|(10X)
A|---3-3----3---3---3-----6/8-------5/6------|
e|--------------------4-4------3-3-----------|
Riff 1 : 
E|-------------------------------------------|w/distortion
G|-------------------------------------------|
B|--5555555----------------------------------|
D|--5555555---6-6--5-------------------------|
A|--3333333---6-6--5-------------------------|
e|------------4-4--3-------------------------|
Riff 2 : 
E|-------------------------------------------|w/distortion
G|-------------------------------------------|
B|--------------------555555555--------------|
D|--6666666666666--5--555555555--666666666--5|
A|--6666666666666--5--333333333--666666666--5|
e|--4444444444444--3-------------444444444--3|
Chorus : 
E|-------------------------------------------|w/distortion
G|-------------------------------------------|
B|-------------------------------------------|
D|---66666666------555555555-----------------|
A|---66666666------555555555-----------------|
e|---44444444------333333333-----------------|
         
E|-------------------------------------------|clean
G|-------------------------------------------|
B|-------------------------------------------|
D|--------5---6---5--------------------------|
A|---3-3----3---3---3-----6/8-------5/6------|
e|--------------------4-4------3-3-----------|
         
E|-------------------------------------------|w/distortion
G|-------------------------------------------|
B|-----------3--3--------------3--3----------|
D|--3--5--3-----------3--5--3--------5-------|(2X)
A|-------------------------------------------|
e|-------------------------------------------|
Solo : 
E|--6---8--11--6--8--6-----------------------|w/distortion
G|----------------------7--------------------|
B|------------------------3-5-3--------------|
D|--------------------------------3----------|
A|-------------------------------------------|
e|-------------------------------------------|

E|-------------------------------------------|w/distortion
G|------------------------------3--4---------|
B|--------5--------------5---5---------------|
D|---3--5----------3--3----------------------|
A|-----------3--5----------------------------|
e|-------------------------------------------|

E|-----------------6---8--6---11--13---14----|w/distortion
G|----3---6----6--------------------------13-|
B|-------------------------------------------|
D|-------------------------------------------|
A|-------------------------------------------|
e|-------------------------------------------|

Please rate !
Thank You.
Tap to rate this tab
# A B C D E F G H I J K L M N O P Q R S T U V W X Y Z