Song name
# A B C D E F G H I J K L M N O P Q R S T U V W X Y Z

Marilyn Manson - Born Villain tab

I love this song, and it's easy to play
Drop D [DADGBe]

Any problems?
avenged_sevenfold-10@live.ca

Intro:
|------------------|
|------------------|
|------------------|
|-0-2-3~-0-2-3-5~--|
|------------------| x 4
|------------------|

Verse:
|------------------|
|------------------|
|------------------|
|-0-2-3~-0-2-3-5~--|
|------------------| x 4
|------------------|
  . . .  . . . .  

"Become, Become Be-Become"
|-----------------|
|-----------------|
|-----------------|
|-----------------|
|---5-5p-0-3-3h5--|
|-0~--------------|

Verse:
|----------------------------------|
|----------------------------------|
|----------------------------------|
|----------------------------------|
|-5-5-5-5-5-5/3-3-3-3/5-5-5-5-5-5--|
|----------------------------------|
  . . . . . . . . . . . . . . . . 

|------------------|
|------------------|
|------------------|
|-0-2-3~-0-2-3-5~--|
|------------------| x 4
|------------------|
 . . .   . . . . 
|------------------|
|------------------|
|------------------|
|-0-2-3~-0-2-3-5~--|
|------------------| x 1
|------------------|

"There is a taste for blood"
|------------------------------------|
|------------------------------------|
|------------------------------------|
|-3-3-3-3-3-3-3-3...0-0-0-0-0-0-0-0--|
|-3-3-3-3-3-3-3-3...0-0-0-0-0-0-0-0--|
|-3-3-3-3-3-3-3-3...0-0-0-0-0-0-0-0--|

"Become, Become Be-Become"
|-----------------|
|-----------------|
|-----------------|
|-----------------|
|---5-5p-0-3-3h5--|
|-0~--------------|

Behind Synth:
(1)
|---------------------|
|---------------------|
|-7-7-7-7-7-7-7-7...--|
|-x-x-x-x-x-x-x-x...--|
|-5-5-5-5-5-5-5-5...--|
|---------------------|

(2)
|-------------------------|
|-------------------------|
|-------------------------|
|-------------------------|
|-[5]-x-x-x-x-x-x-x-x...--|
|-------------------------|

Verse:
|----------------------------------|
|----------------------------------|
|----------------------------------|
|----------------------------------|
|-5-5-5-5-5-5/3-3-3-3/5-5-5-5-5-5--|
|----------------------------------|
  . . . . . . . . . . . . . . . . 

|------------------|
|------------------|
|------------------|
|-0-2-3~-0-2-3-5~--|
|------------------| 
|------------------|

"There is a taste for blood"
|------------------------------------|
|------------------------------------|
|------------------------------------|
|-3-3-3-3-3-3-3-3...0-0-0-0-0-0-0-0--|
|-3-3-3-3-3-3-3-3...0-0-0-0-0-0-0-0--|
|-3-3-3-3-3-3-3-3...0-0-0-0-0-0-0-0--|

"Become, Become Be-Become"
|-----------------|
|-----------------|
|-----------------|
|-----------------|
|---5-5p-0-3-3h5--|
|-0~--------------|

"And you know I'm load-ed"              
|----|---------------------------------|
|----|---------------------------------|
|----|---------------------------------|
|-0~-|---------------------------------|
|-0~-|-5-5-5-5-5-5/3-3-3-3/5-5-5-5-5-5-|
|-0~-|---------------------------------|
       . . . . . . . . . . . . . . . .

*Silence*
|-----------------------------------------------|
|-----------------------------------------------|
|-----------------------------------------------|
|-7-7-7-7-7-7--7-7-7-7-7-7--5-5-5-5/7-7-7-7-7-7-|
|-5-5-5-5-5-5--5-5-5-5-5-5--3-3-3-3/5-5-5-5-5-5-|
|-0-0-0-0-0-0--0-0-0-0-0-0----------0-0-0-0-0-0-|

"Don't Pretend to be a victim, Born Villain"
|-----------------------------------------------|
|-----------------------------------------------|
|-----------------------------------------------|
|-7-7-7-7-7-7--7-7-7-7-7-7--5-5-5-5/7-7-7-7-7-7-|
|-5-5-5-5-5-5--5-5-5-5-5-5--3-3-3-3/5-5-5-5-5-5-|
|-0-0-0-0-0-0--0-0-0-0-0-0----------0-0-0-0-0-0-|

Tap to rate this tab
 
# A B C D E F G H I J K L M N O P Q R S T U V W X Y Z