Song name
# A B C D E F G H I J K L M N O P Q R S T U V W X Y Z

Marilyn Manson - Hey Cruel World tab

Another one off of Born Villain that is easy and still sounds kick ass.
Drop D [DADBGe]

Any problems?
avenged_sevenfold-10@live.ca


Intro:
|-----------------------------------------------|
|-----------------------------------------------|
|-----------------------------------------------|
|---7--7--7--7--7--7...----12---12---12---12...-|
|-9--9--9--9--9--9--...-10---10---10---10---...-|
|-----------------------------------------------|

"I am among no one"
(1)
|--------------------------|
|--------------------------|
|--------------------------|
|2-2-2-2-2-2-2-2-3-3-3-3-2-|
|2-2-2-2-2-2-2-2-3-3-3-3-2-|
|2-2-2-2-2-2-2-2-3-3-3-3-2-|

(2)
|-----|
|-----|
|-----|
|-2br-|
|-----|
|-----|

"Hey Cruel World!"
|----------------------------|
|----------------------------|
|----------------------------|
|-7-7-7-7-10-10-10-10-10-10--|
|-7-7-7-7-10-10-10-10-10-10--|
|-7-7-7-7-10-10-10-10-10-10--|

'You Don't have what it takes!"
(1)
|--------------------------|
|--------------------------|
|--------------------------|
|2-2-2-2-2-2-2-2-3-3-3-3-2-|
|2-2-2-2-2-2-2-2-3-3-3-3-2-|
|2-2-2-2-2-2-2-2-3-3-3-3-2-|

(2)
|---------------------|
|---------------------|
|---------------------|
|---------------------|
|-[2]x-x-x-x-x-x-x----|
|-[2]x-x-x-x-x-x-x----|

|-------------|
|-------------|
|-------------|
|-------------|
|-8/7/5/10/2--|
|-8/7/5/10/2--|

"I am among no one"
(1)
|--------------------------|
|--------------------------|
|--------------------------|
|2-2-2-2-2-2-2-2-3-3-3-3-2-|
|2-2-2-2-2-2-2-2-3-3-3-3-2-|
|2-2-2-2-2-2-2-2-3-3-3-3-2-|

(2)
|-----|
|-----|
|-----|
|-2br-|
|-----|
|-----|

"Hey Cruel World!"
|----------------------------|
|----------------------------|
|----------------------------|
|-7-7-7-7-10-10-10-10-10-10--|
|-7-7-7-7-10-10-10-10-10-10--|
|-7-7-7-7-10-10-10-10-10-10--|

'You Don't have what it takes!"
(1)
|--------------------------|
|--------------------------|
|--------------------------|
|2-2-2-2-2-2-2-2-3-3-3-3-2-|
|2-2-2-2-2-2-2-2-3-3-3-3-2-|
|2-2-2-2-2-2-2-2-3-3-3-3-2-|

(2)
|---------------------|
|---------------------|
|---------------------|
|---------------------|
|-[2]x-x-x-x-x-x-x----|
|-[2]x-x-x-x-x-x-x----|
Tap to rate this tab
 
# A B C D E F G H I J K L M N O P Q R S T U V W X Y Z