Song name
# A B C D E F G H I J K L M N O P Q R S T U V W X Y Z

Marilyn Manson - Breaking The Same Old Ground tab

-------------------------------------------------------------------------------
                             BREAKING THE SAME OLD GROUND - Marilyn Manson
-------------------------------------------------------------------------------
Tabbed by: Tyler
Email: hill.tyler63@yahoo.com

Tuning: Standard

Intro/Verses
   Dm               F                 A#               Gm
e|---1-----1-----1----1------1-----1---------------------3-----3-----3--------|
B|-----3-----3----------1------1--------3-----3-----3------3-----3------------|
G|-------2-----2----------2------2--------3-----3------------3-----3----------|
D|-0----------------3-----------------------3-----3----5----------------------|
A|------------------------------------1---------------------------------------|
E|----------------------------------------------------------------------------|

Choruses

   Bm              G                       F#m (I think)   A       A#
e|---------------------------------------------------------------------------|
B|-3-3-3-3-3-3-3-3-3-3-3-3-3-3-3-3---------2-2-2-2-2-2-2-2-5-5-5-5-5-5-5-5---|
G|-4-4-4-4-4-4-4-4-4-4-4-4-4-4-4-4---------2-2-2-2-2-2-2-2-6-6-6-6-6-6-6-6---|
D|-4-4-4-4-4-4-4-4-5-5-5-5-5-5-5-5-x3-Then-4-4-4-4-4-4-4-4-7-7-7-7-8-8-8-8---|
A|-2-2-2-2-2-2-2-2-5-5-5-5-5-5-5-5---------4-4-4-4-4-4-4-4-7-7-7-7-8-8-8-8---|
E|-----------------3-3-3-3-3-3-3-3---------2-2-2-2-2-2-2-2-5-5-5-5-6-6-6-6---|

(note: Chorus also sounds find played with power chords. In fact, I honestly can't tell 
whether Twiggy is playing what I have tabbed above or just power chords.)

Bridge (the part where he whispers the verse)
   Dm         F           A#          Gm
e|-----1----------------------------------3----------------------------------|
B|---3---3--------1-----------3---------3---3--------------------------------|
G|--------------2---2-----------3-----3--------------------------------------|
D|-0----------3-------------3------------------------------------------------|
A|------------------------1--------------------------------------------------|
E|---------------------------------------------------------------------------|

Shhhhh
   Bm              Gm
e|---------------------------------------------------------------------------|
B|-3-3-3-3-3-3-3-3-3-3-3-3-3-3-3---------------------------------------------|
G|-4-4-4-4-4-4-4-4-3-3-3-3-3-3-3---------------------------------------------|
D|-4-4-4-4-4-4-4-4-5-5-5-5-5-5-5-x4------------------------------------------|
A|-2-2-2-2-2-2-2-2-5-5-5-5-5-5-5---------------------------------------------|
E|-----------------3-3-3-3-3-3-3---------------------------------------------|

Outro

Same thing as chorus only I'm pretty sure Twiggy plays power chords this time around. If 
you do want to play acoustic chords, be sure to play Gm (like in the Shhhhh section) 
rather than G (like in the original chorus).
Tap to rate this tab
# A B C D E F G H I J K L M N O P Q R S T U V W X Y Z