Song name
# A B C D E F G H I J K L M N O P Q R S T U V W X Y Z

Marilyn Manson - Children Of Cain tab

-------------------------------------------------------------------------------
                             CHILDREN OF CAIN - Marilyn Manson
-------------------------------------------------------------------------------
Tabbed by: Tyler
Email: hill.tyler63@yahoo.com

Tuning: Standard

Intro/Verse 1
e|---------------------------------------------------------------------------|
B|---------------------------------------------------------------------------|
G|---------------------------------------------------------------------------|
D|---------------------------------------------------------------------------|
A|-6--------4----------------------------------------------------------------|
E|---------------------7-----6----4------------------------------------------|

Pre-Chorus ("Don't assume that I'm...")
e|----------------------------------------------------------------------------|
B|----------------------------------------------------------------------------|
G|----------------------------------------------------------------------------|
D|-8-------6------------------------------------------------------------------|
A|-6-------4-----------9-----8-----6------------------------------------------|
E|---------------------7-----6-----4------------------------------------------|

Choruses
e|---------------------------------------------------------------------------|
B|---------------------------------------------------------------------------|
G|---------------------------------------------------------------------------|
D|-2-2-2-2-4-4-4-4-6-6-6-6-6-6-6-6-------------------------------------------|
A|-2-2-2-2-4-4-4-4-6-6-6-6-6-6-6-6-------------------------------------------|
E|-0-0-0-0-2-2-2-2-4-4-4-4-4-4-4-4-------------------------------------------|

Brief instrumental section after first chorus
e|---------------------------------------------------------------------------|
B|---------------------------------------------------------------------------|
G|---------------------------------------------------------------------------|
D|-6--------------6----------------------------------------------------------|
A|---------------------------------------------------------------------------|
E|---------4--------------4--------------------------------------------------|

Verse 2 is the same as the pre-chorus

Part after 2nd Chorus
e|----------------------------------------------------------------------------|
B|----------------------------------------------------------------------------|
G|----------------------------------------------------------------------------|
D|----------------------------------------------------------------------------|
A|---6---6---4---4------------------------------------------------------------|
E|-4---4---4---4---4-7-6-4----------------------------------------------------|

Then...
e|---------------------------------------------------------------------------|
B|---------------------------------------------------------------------------|
G|---------------------------------------------------------------------------|
D|-6-------------6-----------------------------------------------------------|
A|---------------------------------------------------------------------------|
E|--------4-------------4----------------------------------------------------|

The "So take your little black book..." part is the same as Verse 1
Tap to rate this tab
# A B C D E F G H I J K L M N O P Q R S T U V W X Y Z