Song name
# A B C D E F G H I J K L M N O P Q R S T U V W X Y Z

Marilyn Manson - Lay Down Your Goddamn Arms tab

-------------------------------------------------------------------------------
                             LAY DOWN YOUR GODDAMN ARMS - Marilyn Manson
-------------------------------------------------------------------------------
Tabbed by: Tyler
Email: hill.tyler63@yahoo.com

Tuning: Drop C

Main Riff Variation 1
e|---------------------------------------------------------------------------|
B|---------------------------------------------------------------------------|
G|---------------------------------------------------------------------------|
D|---------------------------------------------------------------------------|
A|-3--0-3-5-3--0-0-3--0-0-3--0-0---------------------------------------------|
E|-3--0-3-5-3--0-0-3--0-0-3--0-0---------------------------------------------|

Main Riff Variation 2
e|---------------------------------------------------------------------------|
B|---------------------------------------------------------------------------|
G|---------------------------------------------------------------------------|
D|----------------------7------7---------------------------------------------|
A|-3--0-3-5-3--0-0-3--0-5-3--0-5---------------------------------------------|
E|-3--0-3-5-3--0-0-3--0---3--0-----------------------------------------------|

Twiggy pretty much arbitrarily switches between these two variations for various parts
of the song. They sound basically the same and can be played interchangeably. I just play
whichever I feel like playing.

"There isn't a key..."
e|---------------------------------------------------------------------------|
B|---------------------------------------------------------------------------|
G|---------------------------------------------------------------------------|
D|-8-8-8-8-8-8-8-8-5-5-5-5-5-5-5-5-8-8-8-8-8-8-8-8-5-5-5-5-3-3-3-3-----------|
A|-8-8-8-8-8-8-8-8-5-5-5-5-5-5-5-5-8-8-8-8-8-8-8-8-5-5-5-5-3-3-3-3-----------|
E|-8-8-8-8-8-8-8-8-5-5-5-5-5-5-5-5-8-8-8-8-8-8-8-8-5-5-5-5-3-3-3-3-----------|

2nd Verse
e|---------------------------------------------------------------------------|
B|---------------------------------------------------------------------------|
G|------------------------6-8-------6----------------------------------------|
D|--------------------5-7-------5-7------------------------------------------|
A|-5b------------------------------------------------------------------------|
E|---------------------------------------------------------------------------|

That's about it. There are other parts I could tab out, but they are so obvious I felt
like I'd be insulting your intelligence if I did. For example, I could tab the first
verse, but obviously it is just the main riff played with palm mutes.


************************************

| /   slide up
| \   slide down
| h   hammer-on
| p   pull-off
| ~   vibrato
| +   harmonic
| x   Mute note
| b   Bend
| pb  Pre-bend
| br  Bend release
| pbr Pre-bend release
| brb Bend release bend

************************************
Tap to rate this tab
# A B C D E F G H I J K L M N O P Q R S T U V W X Y Z