Song name
# A B C D E F G H I J K L M N O P Q R S T U V W X Y Z

Marilyn Manson - Murderers Are Getting Prettier Every Day tab

Intro/Verse A
e|----------------|
B|----------------|
G|----------------|
D|--0--0--0--(0)--|
A|--0--0--0--(0)--|
D|--0--0--0--(0)--|

Chorus
e|------------------------------------------------------------|
B|------------------------------------------------------------|
G|------------------------------------------------------------|
D|--0--6-5-0--6-5-0--6-5-0--6-5-0--6-5-0--6-5-0--6-5-3-3-3-3--|
A|--0--6-5-0--6-5-0--6-5-0--6-5-0--6-5-0--6-5-0--6-5-3-3-3-3--|
D|--0--6-5-0--6-5-0--6-5-0--6-5-0--6-5-0--6-5-0--6-5-3-3-3-3--|

Verse B
e|----------------|
B|----------------|
G|----------------|
D|--0--0--0-------|
A|--0--0--0-------|
D|--0--0--0--5br--|

Bridge
e|----------------|
B|----------------|
G|----------------|
D|--0----0-1--0---|
A|--0----0-1--0---|
E|--0----0-1--0---|

Solo

No official way, try playing random high notes and see if it fits


Song Structure:

Intro
Verse A
Chorus
Verse B
Chorus 
Bridge
Solo
Chorus
Tap to rate this tab
 
# A B C D E F G H I J K L M N O P Q R S T U V W X Y Z