Song name
# A B C D E F G H I J K L M N O P Q R S T U V W X Y Z

Marilyn Manson - Children Of Cain tab

Verse
e|------------------------|
B|------------------------|
G|------------------------|
D|--13----11---9--8--6----|
A|--13----11---9--8--6----|
E|--11----9----7--6--4----|

Chorus
e|-----------------------------------|
B|-----------------------------------|
G|-----------------------------------|
D|--2-2-2-2-4-4-4-4-6-6-6-6-6-6-6-6--|
A|--2-2-2-2-4-4-4-4-6-6-6-6-6-6-6-6--|
E|--0-0-0-0-2-2-2-2-4-4-4-4-4-4-4-4--|

 
Song Structure:

Verse
Chorus
Bridge A
Verse
Chorus
Bridge B
Verse
Chorus
Tap to rate this tab
# A B C D E F G H I J K L M N O P Q R S T U V W X Y Z