Song name
# A B C D E F G H I J K L M N O P Q R S T U V W X Y Z

Marilyn Manson - Born Villain tab

Intro:
e|-------------------|-------------------|
B|-------------------|-------------------|
G|-------------------|-------------------|
D|----------2--3~----|----------2--3--5~-|
A|-------0-----------|-------0-----------|
D|----0--------------|----0--------------|

Verse:
e|-------------------|-------------------|
B|-------------------|-------------------|
G|-------------------|-------------------|
D|----------2--3~----|----------2--3--5~-|
A|-------0-----------|-------0-----------|
E|----0--------------|----0--------------|

Chorus:
e|-------------------|
B|-------------------|
G|-------------------|
D|-------------------|
A|----5-5p0-0-3-3h5--|
D|--0----------------|

Pre-Chorus
e|-------------------|
B|-------------------|
G|-------------------|
D|----3~~--0~~-------|
A|----3~~--0~~-------|
D|----3~~--0~~-------|

Bridge (played behind the synth)
e|-----------------------------------|-----------------------------------|
B|-----------------------------------|-----------------------------------|
G|-----------------------------------|-----------------------------------|
D|-----------------------------------|-----------------------------------|
A|--5-5-5-5-5-5-5-5-5----------------|--5-5-5-5-5-5-5-5-5-5-3-3-3-3-3-3--|
D|-----------------------------------|-----------------------------------|

Outro
e|-----------------------------------|-----------------------------------|
B|-----------------------------------|-----------------------------------|
G|--7-7-7-7-7-7-7-7-7----------------|--7-7-7-7-7-7-7-7-7-7-5-5-5-5-5-5--|
D|--7-7-7-7-7-7-7-7-7----------------|--7-7-7-7-7-7-7-7-7-7-5-5-5-5-5-5--|
A|--5-5-5-5-5-5-5-5-5----------------|--5-5-5-5-5-5-5-5-5-5-3-3-3-3-3-3--|
D|--0-0-0-0-0-0-0-0-0----------------|--0-0-0-0-0-0-0-0-0-0--------------|

This is heard behind the dist. guitar.
e|-----------------------------------|
B|-----------------------------------|
G|--7br-----7br-----7br-----7br------|
D|-----------------------------------|
A|-----------------------------------|
D|-----------------------------------|

Song Structure:
Intro
Verse
Chorus
Intro 
Verse
Pre-Chorus
Chorus
Bridge
Verse
Pre-Chorus
Chorus
Bridge
Outro
Tap to rate this tab
 
# A B C D E F G H I J K L M N O P Q R S T U V W X Y Z