Song name
# A B C D E F G H I J K L M N O P Q R S T U V W X Y Z

Marilyn Manson - Burning Flag tab

Band - Marilyn Manson
Song - Burning Flag

e|--------------------------------------------------------------|
B|--------------------------------------------------------------|
G|--------------------------------------------------------------|
D|-0-6-0----------0-6-0----------0-6-0--------------0-6-0-------|
A|-0-6-0----------0-6-0----------0-6-0--------------0-6-0-------|
D|-0-6-0----------0-6-0----------0-6-0--------------0-6-0-------|

e|---------------------------------|
B|---------------------------------|
G|---------------------------------|
D|-xx-3-0-xx-3-0-xx-3-0--x\666666--|
A|-xx-3-0-xx-3-0-xx-3-0--x\666666--|
D|-xx-3-0-xx-3-0-xx-3-0--x\666666--|

e|-------------|
B|-2--3--5--4--|
G|-5--5--5--5--|
D|-------------|
A|-------------|
D|-------------|

e|-------------|
B|-------------|
G|-------------|
D|-xx-6-0--x-3-|
A|-xx-6-0--x-3-|
D|-xx-6-0--x-3-|

Chorus:
e|------------------|
B|------------------|
G|-5-5-5-5-5\3-6-6--|
D|-5-5-5-5-5\3-6-6--|
A|-3-3-3-3-3\1-4-4--|
D|------------------|
Tap to rate this tab
# A B C D E F G H I J K L M N O P Q R S T U V W X Y Z