Song name
# A B C D E F G H I J K L M N O P Q R S T U V W X Y Z

Marilyn Manson - If I Was Your Vampire tab

Riff Principal

e|--------------------------------------------------|
B|--------------------------------------------------|
G|--------------------------------------------------|
D|--------------------------------------------------|
A|---2---3----2---3------2---3--2--0--5--3--2-------|
E|-0---0----0---0------0---0---0--0--0--0--0--------|    4 x


Coro

e|-10-10-10-10-10-----------------------------------|
B|-11-11-11-11-11-13-13-13-13-13-11-11-11-11-11-----|
G|----------------14-14-14-14-14-12-12-12-12-12-----|
D|--------------------------------------------------|
A|--------------------------------------------------|
E|--------------------------------------------------|  2 x  



e|--------------------------------------------------------------|
B|--------------------------------------------------------------|
G|---9---10----9---10-----9---10--9--10---9--7---12---10---9----|
D|-7---7----7----7-----7----7---7---7---7--7---7----7----7------|
A|--------------------------------------------------------------|
E|--------------------------------------------------------------|  4 x


Final


e|------------------------------------------------|
B|------------------------------------------------|
G|--12~~--11--9~---8--12--12--11~----11---17--16--|
D|--X-----X---X----X--X---X---X------X----X---X---|
A|--10~~--9---7~---6--10--10--9~~----9----15--14--|
E|------------------------------------------------|
Tap to rate this tab
# A B C D E F G H I J K L M N O P Q R S T U V W X Y Z