Song name
# A B C D E F G H I J K L M N O P Q R S T U V W X Y Z

Marilyn Manson - Valentines Day tab

Normal Tunning

INTRO
e-----------------------------------------------------
B--------------6-------4----------------4-------------
G--------4---------4--------4-----7------------------- X  3
D--6--------------------------------------------------
A-----------------------------------------------------
E-----------------------------------------------------

e-----------------------------------------------------
B-------------6--------4------------------------------
G-------4----------4--------4-----7------4------------ X 1
D--6--------------------------------------------------
A-----------------------------------------------------
E-----------------------------------------------------

VERSE
The same as the intro but twice all

PRECHORUS

e------------------------------------------------------
B------------------------------------------------------
G--5---7---8-------------------------------------------
D--5---7---8---5---------------------------------------
A--3---5---6---5---------------------------------------
E--------------3---------------------------------------

CHORUS
e-----------------------------------------------------
B-----------------------------------------------------
G-----------------------------------------------------
D-3---6---5/3--------6--5/3-----3--------------------- X 2
A-3---6---5/3--------6--5/3-----3---------------------
E-1---4---3/1--------4--3/1-----1---------------------
                               PM

POSTCHORUS
e------------------------------------------------------
B------------------------------------------------------
G-----5------------------------------------------------
D--6--5--3---------------------------------------------   X 2
A--6--3--3---------------------------------------------
E--4-----1---------------------------------------------

INTRO

VERSE 
just the first part

CHORUS 
repeat as necesary
Tap to rate this tab
# A B C D E F G H I J K L M N O P Q R S T U V W X Y Z