Song name
# A B C D E F G H I J K L M N O P Q R S T U V W X Y Z

Marilyn Manson - Antichrist Superstar tab

This an alternate way I discovered.  Enjoy.

Intro (x8)
e---------------------------------------------------------|
B---------------------------------------------------------|
G---------------------------------------------------------|
D-----9------9--------------------------------------------|
A-----9------9--------------------------------------------|
E-----7------7--------------------------------------------|


Pre-Chorus A
e----------------------------------------------------------|
B----------------------------------------------------------|
G----------------------------------------------------------|
D---9-9-12-9-7---(all x3 then)--9-9-12-9-------------------|
A---9-9-12-9-7------------------9-9-12-9-8-7-12------------|
E---7-7-10-7--------------------7-7-10-7-8-7-10------------|


Verse
e----------------------------------------------------------|
B----------------------------------------------------------|
G----------------------------------------------------------|
D--9-9----9------------------------------------------------|
A--9-9-12-9------------------------------------------------|
E--7-7-10-7------------------------------------------------|


Chorus A
e----------------------------------------------------------|
B----------------------------------------------------------|
G----------------------------------------------------------|
D-12-12-11-10-----9-9----9--9----9-------------------------|
A-12-12-11-10-----9-9-12-9--9-12-9-------------------------|
E-10-10-9--8------7-7-10-7--7-10-7-------------------------|


e----------------------------------------------------------|
B----------------------------------------------------------|
G----------------------------------------------------------|
D--9-9-12-9------------------------------------------------|
A--9-9-12-9-8-7-12-----------------------------------------|
E--7-7-10-7-8-7-10-----------------------------------------|
Tap to rate this tab
# A B C D E F G H I J K L M N O P Q R S T U V W X Y Z