Song name
# A B C D E F G H I J K L M N O P Q R S T U V W X Y Z

Marilyn Manson - The Bright Young Things tab

The Bright Young Things - Marilyn Manson
Tabbed by Tinboy

Tuning - Drop D

E B G D A D

Intro

|----------------------------------------------------------------------------------|
|----------------------------------------------------------------------------------|
|----------------------------------------------------------------------------------|
|---0-2-3-0-0--0-2-3-0-0--6-6--0-2-3-0-0--0-2-3-0-0--6-6-6-6-----------------------| x2
|---0-2-3-0-0--0-2-3-0-0--6-6--0-2-3-0-0--0-2-3-0-0--6-6-6-6-----------------------|
|---0-2-3-0-0--0-2-3-0-0--6-6--0-2-3-0-0--0-2-3-0-0--6-6-6-6-----------------------|

Verse - (this riff a lot)

|----------------------------------------------------------------------------------|
|----------------------------------------------------------------------------------|
|----------------------------------------------------------------------------------|
|----------------------------------------------------------------------------------|
|---6-5-5-6-5-5-6-5----------------------------------------------------------------|
|----------------------------------------------------------------------------------|

Pre-Chorus - "good for nothing but being everything thats bad"

|----------------------------------------------------------------------------------|
|----------------------------------------------------------------------------------|
|----------------------------------------------------------------------------------|
|---0-2-3-0-0---0-2-3-0-0--6-6-6-6---0-2-3-0-0---6-6--0-2-3-0-0-0-2-3-0-0--6-6-6---|
|---0-2-3-0-0---0-2-3-0-0--6-6-6-6---0-2-3-0-0---6-6--0-2-3-0-0-0-2-3-0-0--6-6-6---|
|---0-2-3-0-0---0-2-3-0-0--6-6-6-6---0-2-3-0-0---6-6--0-2-3-0-0-0-2-3-0-0--6-6-6---|

Chorus

|----------------------------------------------------------------------------------|
|----------------------------------------------------------------------------------|
|---------------------5-5-5-5------------------------------------------------------|
|---0-0-0-0--3-3-3-3--5-5-5-5--3-6-6-6---------------------------------------------| x4
|---0-0-0-0--3-3-3-3--3-3-3-3--3-6-6-6---------------------------------------------|
|---0-0-0-0--3-3-3-3-----------3-6-6-6---------------------------------------------|

Bridge

|----------------------------------------------------------------------------------|
|----------------------------------------------------------------------------------|
|----------------------------------------------------------------------------------|
|---0-2-3-6---0-2-3-6--------------------------------------------------------------|
|---0-2-3-6---0-2-3-6--------------------------------------------------------------|
|---0-2-3-6---0-2-3-6--------------------------------------------------------------|

Verse

|----------------------------------------------------------------------------------|
|----------------------------------------------------------------------------------|
|----------------------------------------------------------------------------------|
|----------------------------------------------------------------------------------|
|---6-5-5-6-5-5-6-5----------------------------------------------------------------|
|----------------------------------------------------------------------------------|

Pre-Chorus

|----------------------------------------------------------------------------------|
|----------------------------------------------------------------------------------|
|----------------------------------------------------------------------------------|
|---0-2-3-0-0---0-2-3-0-0--6-6-6-6---0-2-3-0-0---6-6--0-2-3-0-0-0-2-3-0-0--6-6-6---|
|---0-2-3-0-0---0-2-3-0-0--6-6-6-6---0-2-3-0-0---6-6--0-2-3-0-0-0-2-3-0-0--6-6-6---|
|---0-2-3-0-0---0-2-3-0-0--6-6-6-6---0-2-3-0-0---6-6--0-2-3-0-0-0-2-3-0-0--6-6-6---|

Chorus

|----------------------------------------------------------------------------------|
|----------------------------------------------------------------------------------|
|---------------------5-5-5-5------------------------------------------------------|
|---0-0-0-0--3-3-3-3--5-5-5-5--3-6-6-6---------------------------------------------| x4
|---0-0-0-0--3-3-3-3--3-3-3-3--3-6-6-6---------------------------------------------|
|---0-0-0-0--3-3-3-3-----------3-6-6-6---------------------------------------------|

Bridge

|----------------------------------------------------------------------------------|
|----------------------------------------------------------------------------------|
|----------------------------------------------------------------------------------|
|---0-2-3-6---0-2-3-6--------------------------------------------------------------|
|---0-2-3-6---0-2-3-6--------------------------------------------------------------|
|---0-2-3-6---0-2-3-6--------------------------------------------------------------|

Middle Section

Gtr. 1
|---------16br---------------------------------------------------------------------|
|----------------------------------------------------------------------------------|
|---13br---------------------------------------------------------------------------|
|----------------------------------------------------------------------------------| x4
|----------------------------------------------------------------------------------|
|----------------------------------------------------------------------------------|

Gtr. 2
|----------------------------------------------------------------------------------|
|----------------------------------------------------------------------------------|
|----------------------------------------------------------------------------------|
|---0-2-3-0-0--0-2-3-0-0--6-6--0-2-3-0-0--0-2-3-0-0--6-6-6-6-----------------------| x2
|---0-2-3-0-0--0-2-3-0-0--6-6--0-2-3-0-0--0-2-3-0-0--6-6-6-6-----------------------|
|---0-2-3-0-0--0-2-3-0-0--6-6--0-2-3-0-0--0-2-3-0-0--6-6-6-6-----------------------|

Bridge - "Perpetual rebellion, with absolutely no cause"

|----------------------------------------------------------------------------------|
|----------------------------------------------------------------------------------|
|----------------------------------------------------------------------------------|
|---6--------6--------6--------0-2-3-0---------------------------------------------|
|---6--------6--------6--------0-2-3-0---------------------------------------------|
|---6--------6--------6--------0-2-3-0---------------------------------------------|

Chorus

|----------------------------------------------------------------------------------|
|----------------------------------------------------------------------------------|
|---------------------5-5-5-5------------------------------------------------------|
|---0-0-0-0--3-3-3-3--5-5-5-5--3-6-6-6---------------------------------------------| x8
|---0-0-0-0--3-3-3-3--3-3-3-3--3-6-6-6---------------------------------------------|
|---0-0-0-0--3-3-3-3-----------3-6-6-6---------------------------------------------|

Outro

|----------------------------------------------------------------------------------|
|----------------------------------------------------------------------------------|
|----------------------------------------------------------------------------------|
|---0-2-3-0-0---0-2-3-0-0--6-6-6-6---0-2-3-0-0---6-6--0-2-3-0-0-0-2-3-0-0--6-6-6---|
|---0-2-3-0-0---0-2-3-0-0--6-6-6-6---0-2-3-0-0---6-6--0-2-3-0-0-0-2-3-0-0--6-6-6---|
|---0-2-3-0-0---0-2-3-0-0--6-6-6-6---0-2-3-0-0---6-6--0-2-3-0-0-0-2-3-0-0--6-6-6---|

that's all

email - tinboy50@hotmail.com
Tap to rate this tab
# A B C D E F G H I J K L M N O P Q R S T U V W X Y Z