Song name
# A B C D E F G H I J K L M N O P Q R S T U V W X Y Z

Marilyn Manson - Better Of Two Evils tab

Chorus A (Guitar 1)
e----------------------------------------------------------|
B----------------------------------------------------------|
G----------------------------------------------------------|
D--2/4--4---2/4--4----2/4--4---2/4--5---2/4--4---2/4--4----|
A--2/4--4---2/4--4----2/4--4---2/4--5---2/4--4---2/4--4----|
D--2/4--4---2/4--4----2/4--4---2/4--5---2/4--4---2/4--4----|

(continued)
e----------------------------------------------------------|
B----------------------------------------------------------|
G----------------------------------------------------------|
D--2/4--5----2---------------------------------------------|
A--2/4--5----2---------------------------------------------|
D--2/4--5----2---------------------------------------------|

Chorus B (Guitar 2)
e----------------------------------------------------------|
B--14^----14^----12^----------14^----14^----12^------------|
G-----------------------11^-----------------------11^------|
D----------------------------------------------------------|
A----------------------------------------------------------|
D----------------------------------------------------------|


Riff
e----------------------------------------------------------|
B----------------------------------------------------------|
G----------------------------------------------------------|
D---5\4----5-5\4------5\4----5-5\4-------------------------|
A---x------x-x---------------x-x---------------------------|
D---5\4----5-5\4------5\4----5-5\4-------------------------|


Pre-Chorus
e----------------------------------------------------------|
B--------10----------12----------10---------12-------------|
G--11----------11----------11----------11------------------|
D----------------------------------------------------------|
A----------------------------------------------------------|
D----------------------------------------------------------|


Bridge
e----------------------------------------------------------|
B----------------------------------------------------------|
G----5----5----5----5--------5----5----5----5--------------|
D--4-5--4-5--4-5--4-5--------5--4-5--4-5--4-5--------------|
A--4-3--4-3--4-3--4-3------4-3--4-3--4-3--4-3--------------|
D--4----4----4----4--------4----4----4----4----------------|
Tap to rate this tab
# A B C D E F G H I J K L M N O P Q R S T U V W X Y Z