Song name
# A B C D E F G H I J K L M N O P Q R S T U V W X Y Z

Marilyn Manson - Coma White Acoustic tab

Intro

e-------------------------------------------------------|
B------0------0------0------0-----0---0-----------------|
G----4------4------4------4-----5---5-------------------|  (x3)
D--7------7------7------7-------------------------------|
A-------------------------------------------------------|
E-------------------------------------------------------|

(Intro Continued)
e-------------------------------------------------------|
B-------0-----0-----0-----0-----0-----0-----0-----0-----|
G--5/7-----7-----7-----7-----5-----5-----4-----4--------|
D-------------------------------------------------------|
A-------------------------------------------------------|
E-------------------------------------------------------|

(Second Guitar, played along with intro, comes in on "today")
e---------------------------------------------------------|
B-13~-12~-10~-12-13~-12~----------------------------------|
G---------------------------------------------------------|
D---------------------------------------------------------|
A---------------------------------------------------------|
E---------------------------------------------------------|

[PLAY INTRO ALL THROUGH FIRST VERSE]


There's something cold and blank
Behind her smile
She's standing on an overpass
In a miracle mile
Cause you were from a perfect world
A world that threw me away today, today, today
To run away

Chorus
e---------------------------------------------------------|
B--1-1-1-1-1-1-1-1XX--------------------------------------|
G--2-2-2-2-2-2-2-2XX--------------------------------------|   Am
D--2-2-2-2-2-2-2-2XX--------------------------------------|
A---------------------------------------------------------|
E---------------------------------------------------------|
  A pill to make you numb


e---------------------------------------------------------|
B--1-1-1-1-1-1-1-1XX--------------------------------------|
G--0-0-0-0-0-0-0-0XX--------------------------------------|   C
D--2-2-2-2-2-2-2-2XX--------------------------------------|
A--3-3-3-3-3-3-3-3XX--------------------------------------|
E---------------------------------------------------------|
  A pill to make you dumb



e---------------------------------------------------------|
B--1-1-1-1-1-1-1-1----------------------------------------|
G--0-0-0-0-0-0-0-0/4-4-4-4-4-4-4-4XX----------------------|   G/F
D--0-0-0-0-0-0-0-0/3-3-3-3-3-3-3-3XX----------------------|
A--2-2-2-2-2-2-2-2/3-3-3-3-3-3-3-3XX----------------------|
E--3-3-3-3-3-3-3-3/1-1-1-1-1-1-1-1XX----------------------|
  A pill to make you anybody else



e---------------------------------------------------------|
B--1-1-1-1-1-1-1-1XX/1-1-1-1-1-1-1-1----------------------|
G--2-2-2-2-2-2-2-2XX/0-0-0-0-0-0-0-0----------------------|   Am/C
D--2-2-2-2-2-2-2-2XX/2-2-2-2-2-2-2-2----------------------|
A--------------------3-3-3-3-3-3-3-3----------------------|
E---------------------------------------------------------|                        
  But all the drugs in this world
       

e---------------------------------------------------------|
B--1-1-1-1-1-1-1-1/---------------------------------------|
G--0-0-0-0-0-0-0-0/4-4-4-4-4-4-4-4------------------------|   G/F
D--0-0-0-0-0-0-0-0/3-3-3-3-3-3-3-3------------------------|
A--2-2-2-2-2-2-2-2/3-3-3-3-3-3-3-3------------------------|
E--3-3-3-3-3-3-3-3/1-1-1-1-1-1-1-1------------------------|                
  won't save her from herself


End Chorus
e---------------------------------------------------------------------|
B---------------------------------------------------------------------|
G---------------------------------------------------------------------|
D-7-7-7-7x/10/12\XX6-6-6-6/10/12\XX7-7-7-7/12\10\x3-3-3-3-3-3-333/7~~~|
A-7-7-7-7x/10/12\XX6-6-6-6/10/12\XX7-7-7-7/12\10\x3-3-3-3-3-3-333/7~~~|
E-5-5-5-5x/8 /10\XX4-4-4-4/8 /10\XX5-5-5-5/10\8 \x1-1-1-1-1-1-111/5~~~|


[PLAY INTRO ALL THROUGH SECOND VERSE]

Her mouth was an empty cut
She was waiting to fall
Just bleeding like a poloroid
That lost all her dolls
You were from a perfect world
A world that threw me away today, today, today
To run away


Am
  A pill to make you numb
C
  A pill to make you dumb
G                   F
  A pill to make you anybody else            (x3)
Am                         C
  But all the drugs in this world
       G                F
 won't save her from herself



(Second guitar plays this behind the chorus)
e----------------------------------------------------------|
B---5-3-5----5-3-5----5-3-5----5-3-5-----------------------|
G-4--------4--------4--------4-----------------------------|    (x2)
D----------------------------------------------------------|
A----------------------------------------------------------|
E----------------------------------------------------------|


End Chorus
e--------------------------------------------------------------------|
B--------------------------------------------------------------------|
G--------------------------------------------------------------------|   (x3)
D-7-7-7-7/10/12\XX6-6-6-6/10/12\XX7-7-7-7/12\10\x3-3-3-3-3-3-333/7~~~|
A-7-7-7-7/10/12\XX6-6-6-6/10/12\XX7-7-7-7/12\10\x3-3-3-3-3-3-333/7~~~|
E-5-5-5-5/8 /10\XX4-4-4-4/8 /10\XX5-5-5-5/10\8 \x1-1-1-1-1-1-111/5~~~|


SOLO (Second guitar plays this when the End Chorus is played a second time)
e----------------------------------------------------------|
B-10-10-10-10--8-10---8-7--7--10--7--6----6p5h6/10---------|
G----------------------------------------------------------| (x4)
D----------------------------------------------------------|
A----------------------------------------------------------|
E----------------------------------------------------------|



e----------------------------------------------------------|
B---5-3-5----5-3-5----5-3-5----5-3-5-----------------------|
G-4--------4--------4--------4-----------------------------|
D----------------------------------------------------------|
A----------------------------------------------------------|
E----------------------------------------------------------|


Am/C/G/F (play these chords following the same pattern)

(Played behind chords)
e----------------------------------------------------------|
B---5-3-5----5-3-5----5-3-5----5-3-5-----------------------|
G-4--------4--------4--------4-----------------------------|    (x3)
D----------------------------------------------------------|
A----------------------------------------------------------|
E----------------------------------------------------------|



Am
  A pill to make you numb
C
  A pill to make you dumb
G                   F
  A pill to make you anybody else            (x3)
Am                         C
  But all the drugs in this world
       G                F
 won't save her from herself


Chorus is played out along with this outro.

OUTRO
e----------------------------------------------------------|
B----------------------------------------------------------|
G-4b--2-0--------------------------------------------------| (x13)
D----------------------------------------------------------|
A----------------------------------------------------------|
E----------------------------------------------------------|
Tap to rate this tab
 
# A B C D E F G H I J K L M N O P Q R S T U V W X Y Z