Song name
# A B C D E F G H I J K L M N O P Q R S T U V W X Y Z

Marilyn Manson - Hey Cruel World tab

-------------------------------------------------------------------------------
                        HEY CRUEL WORLD - Marilyn Manson
-------------------------------------------------------------------------------
Tabbed by: ironmanben
E-mail: bentrooper@gmail.com

Tuning: e B G D A E

guitar 1 - Twiggy
guitar 2 - Twiggy (overdub)

intro:
(guitar 1 - clean)
e|---------------------------------------------------------------------|
B|---------------------------------------------------------------------|
G|---------------------------------------------------------------------|
D|---------------------------------------------------------------------|
A|-----7-----------7-----------7-----------10----------10--------------|
E|-0-----------0-----------0-----------0-----------0-----------0-------|

e|---------------------------------------------------------------|
B|---------------------------------------------------------------|
G|---------------------------------------------------------------|
D|---------------------------------------------------------------|
A|-----14----------14----------14----------14----------14^-------|
E|-0-----------0-----------0-----------0-----------0-------------|


verse:
(guitar 1 - distortion)
e|---------------------------------|
B|---------------------------------|
G|---------------------------------|
D|-2-----2-----2-----2-2-2-2-3-3-3-|
A|-2-----2-----2-----2-2-2-2-3-3-3-|
E|-0-0-0-0-0-0-0-0-0-0-0-0-0-1-1-1-|
     x x   x x   x x 

verse lead:
(guitar 2:)
e|------------------------------------------|
B|------------------------------------------|
G|-7---^(9)---(9)---(9)---^(10)(10)(10)r(9)-|
D|------------------------------------------|
A|------------------------------------------|
E|------------------------------------------|


verse lead 2:
(guitar 2:)
e|---------------------------------|
B|---------------------------------|
G|---------------------------------|
D|---------------------------------|
A|---------------------------------|
E|-3^----------------0-0-0-0-1-1-1-|


chorus:
  (guitar 1:)
e|---------------------------------|---------------------------------|
B|---------------------------------|---------------------------------|
G|-2-----2-----5-----5-----5-------|---------------------------------|
D|-2-----2-----5-----5-----5-------|---------------------------------|
A|-0-----0-----3-----3-3-3-3-------|-x-x-x-x-x-x-x-x-x-x-x-x-x-x-x-x-|
E|---------------------------------|-x-x-x-x-x-x-x-x-x-x-x-x-x-x-x-x-|
-| (guitar 2:)                     | ^guitar 1 simply mutes.         |
e|---------------------------------|---------------------------------|
B|---------------------------------|---------------------------------|
G|---------------------------------|---------------------------------|
D|---------------------------------|---------------------------------|
A|-0-----0-----3~----3~----3~--12\\|-+-+-+-+-+-+-+-+-+-+-+-+-+-+-+-+-|
E|---------------------------------|-9-9-9-9-9-9-9-9-9-9-9-9-9-9-9-9-|
                                     ^For guitar 2, hold the string around
                                      the 9th fret, but mute rather than
                                      pressing down, to get the harmonic.

e|---------------------------------|---------------------------------|
B|---------------------------------|---------------------------------|
G|-2-----2-----5-----5-----5-------|---------------------------------|
D|-2-----2-----5-----5-----5-------|-2-----2-----2-----2-2-2-2-3-3-3-|
A|-0-----0-----3-----3-3-3-3-------|-2-----2-----2-----2-2-2-2-3-3-3-|
E|---------------------------------|-0-0-0-0-0-0-0-0-0-0-0-0-0-1-1-1-|
-|                                 |   x x   x x   x x               |
e|---------------------------------|---------------------------------|
B|---------------------------------|---------------------------------|
G|---------------------------------|-9-9-9-9-9-9-9-9-9-9-9-9-9-------|
D|---------------------------------|---------------------------------|
A|-0-----0-----3~----3~----3~--12\\|---------------------------+-+-+-|
E|---------------------------------|---------------------------9-9-9-|


e|---------------------------------|
B|---------------------------------|
G|---------------------------------|
D|-2-----2-----2-----2-2-2-2-3-3-3-|
A|-2-----2-----2-----2-2-2-2-3-3-3-|
E|-0-0-0-0-0-0-0-0-0-0-0-0-0-1-1-1-|
-|   x x   x x   x x               |
e|---------------------------------|
B|---------------------------------|
G|-9-9-9-9-9-9-9-9-9-9-9-9-9-------|
D|---------------------------------|
A|---------------------------+-+-+-|
E|---------------------------9-9-9-|


bridge:
(guitar 1:)
e|---------------------------------|---------------------------------|
B|---------------------------------|---------------------------------|
G|-------------------------2-2-----|---------------------------------|
D|-8-8-8-7-7-7-4-4-4-5-5-5-2-2-4-4-|-8-8-8-7-7-7-4-4-4-5-5-5-3-3-2-2-|
A|-8-8-8-7-7-7-4-4-4-5-5-5-0-0-2-2-|-8-8-8-7-7-7-4-4-4-5-5-5-3-3-2-2-|
E|-6-6-6-5-5-5-2-2-2-3-3-3-----0-0-|-6-6-6-5-5-5-2-2-2-3-3-3-1-1-0-0-|

e|---------------------------------|---------------------------------|
B|---------------------------------|---------------------------------|
G|-------------------------2-2-----|---------------------------------|
D|-8-8-8-7-7-7-4-4-4-5-5-5-2-2-2-2-|-8-8-8-7-7-7-4-4-4-5-5-5-3-3-2-2-|
A|-8-8-8-7-7-7-4-4-4-5-5-5-0-0-2-2-|-8-8-8-7-7-7-4-4-4-5-5-5-3-3-2-2-|
E|-6-6-6-5-5-5-2-2-2-3-3-3-----0-0-|-6-6-6-5-5-5-2-2-2-3-3-3-1-1-0-0-|


chorus 2:
e|---------------------------------|---------------------------------|
B|---------------------------------|---------------------------------|
G|-2-----2-----5-----5-----5-------|---------------------------------|
D|-2-----2-----5-----5-----5-------|---------------------------------|
A|-0-----0-----3-----3-3-3-3-------|-x-x-x-x-x-x-x-x-x-x-x-x-x-x-x-x-|
E|---------------------------------|-x-x-x-x-x-x-x-x-x-x-x-x-x-x-x-x-|
-|                                 | ^guitar 1 simply mutes.         |
e|---------------------------------|---------------------------------|
B|---------------------------------|---------------------------------|
G|---------------------------------|---------------------------------|
D|---------------------------------|---------------------------------|
A|-0-----0-----3~----3~----3~--12\\|-+-+-+-+-+-+-+-+-+-+-+-+-+-+-+-+-|
E|---------------------------------|-9-9-9-9-9-9-9-9-9-9-9-9-9-9-9-9-|
                                     ^For guitar 2, hold the string around
                                      the 9th fret, but mute rather than
                                      pressing down, to get the harmonic.

e|---------------------------------|---------------------------------|
B|---------------------------------|---------------------------------|
G|-2-----2-----5-----5-----5-------|---------------------------------|
D|-2-----2-----5-----5-----5-------|-2-----2-----2-----2-2-2-2-3-3-3-|
A|-0-----0-----3-----3-3-3-3-------|-2-----2-----2-----2-2-2-2-3-3-3-|
E|---------------------------------|-0-0-0-0-0-0-0-0-0-0-0-0-0-1-1-1-|
-|                                 |   x x   x x   x x               |
e|---------------------------------|---------------------------------|
B|---------------------------------|-+-+-+-+-+-+-+-+-+-+-+-+-+-------|
G|---------------------------------|-9-9-9-9-9-9-9-9-9-9-9-9-9-------|
D|---------------------------------|---------------------------------|
A|-0-----0-----3~----3~----3~--12\\|---------------------------+-+-+-|
E|---------------------------------|---------------------------9-9-9-|


e|---------------------------------|
B|---------------------------------|
G|---------------------------------|
D|-2-----2-----2-----2-2-2-2-3-3-3-|
A|-2-----2-----2-----2-2-2-2-3-3-3-|
E|-0-0-0-0-0-0-0-0-0-0-0-0-0-1-1-1-|
-|   x x   x x   x x               |
e|---------------------------------|
B|---------------------------------|
G|---------------------------------|
D|-9-9-9-9-9-9-9-9-9-9-9-9-9-------|
A|---------------------------+-+-+-|
E|---------------------------9-9-9-|


e|---------------------------------|
B|---------------------------------|
G|---------------------------------|
D|-2-----2-----2-----2-2-2-2-3-3-3-|
A|-2-----2-----2-----2-2-2-2-3-3-3-|
E|-0-0-0-0-0-0-0-0-0-0-0-0-0-1-1-1-|
-|   x x   x x   x x               |
e|---------------------------------|
B|---------------------------------|
G|---------------------------------|
D|-9-9-9-9-9-9-9-9-9-9-9-9-9-------|
A|---------------------------+-+-+-|
E|---------------------------9-9-9-|


e|---------------------------------|
B|---------------------------------|
G|---------------------------------|
D|-2-----2-----2-----2-2-2-2-3-3-3-|
A|-2-----2-----2-----2-2-2-2-3-3-3-|
E|-0-0-0-0-0-0-0-0-0-0-0-0-0-1-1-1-|
-|   x x   x x   x x               |
e|---------------------------------|
B|---------------------------------|
G|---------------------------------|
D|-9-9-9-9-9-9-9-9-9-9-9-9-9-------|
A|---------------------------+-+-+-|
E|---------------------------9-9-9-|


ORDER:
intro x3
verse x4
verse x2/verse lead x2
chorus 
verse x1 (bass only)
verse x4/verse lead 2 x4
verse x4/verse lead x4
chorus
bridge
verse x4
chorus 2
Tap to rate this tab
 
# A B C D E F G H I J K L M N O P Q R S T U V W X Y Z