Song name
# A B C D E F G H I J K L M N O P Q R S T U V W X Y Z

Marilyn Manson - White Trash tab

h-hammer on

e|-------------0-------0-------0--|--------------0--------------0---------|
B|-------------1-------1-------1--|--------------1--------------1---------|
G|-------------2-------2-------2--|--------------2--------------2---------|
D|-------------2-------2-------2--|--------------2--------------2---------|
A|---------0---0-------0---0---0--|---------0----0----------0---0---------|
D|-0---3-------0---0---0-------0--|-0-0h3--------0---0---3------0---0h3---|

Am              G
Virgins sold in quantity
D
"African" American heredity
 Am                             G
I'm playin' my guitar and I'm feelin' fine
D
Why are all the "niggers" in the unemployment line?

e|-------0-------0-------0-0---|-------0-------0-------0-0-0-0-|
B|-------1-------1-------1-1---|-------1-------1-------1-1-1-1-|
G|-------2-------2-------2-2---|-------2-------2-------2-2-2-2-|
D|-------2-------2-------2-2---|-------2-------2-------2-2-2-2-|
A|-------0---0---0-------0-0---|---0---0-------0---0---0-0-0-0-|
E|---0---0-------0---0---0-0---|-------0---0---0-------0-0-0-0-|

Am                   G
White Trash get down on your knees
D
Time for cake and sodomy
Am                   G
White Trash get down on your knees
D
Time for cake and sodomy


e|------------------0-------0-------0-0--|--------------0-------0-0---------|
B|------------------1-------1-------1-1--|--------------1-------1-1---------|
G|------------------2-------2-------2-2--|--------------2-------2-2---------|
D|------------------2-------2-------2-2--|--------------2-------2-2---------|
A|--------------0---0-------0---0---0-0--|---------0----0-------0-0---------|
E|-0-0--3---4-------0---0---0-------0-0--|---0h3--------0---0---0-0---0-3---|


Am               G
Teenage girl, a teenage queen
 D
Till she's on video, a porno queen
 Am                          G
She likes to give head, she likes it mean
D
That's why she's my little queen

e|--------|
B|--------|
G|--------|
D|--------|
A|------0-|
E|-0-3----|

Am                   G
White Trash get down on your knees
D
Time for cake and sodomy
Am                   G
White Trash get down on your knees
D
Time for cake and sodomy

e|---------------0-------0-------0-------|-----------0-------0-------0-0--|
B|---------------1-------1-------1-------|-----------1-------1-------1-1--|
G|---------------2-------2-------2-------|-----------2-------2-------2-2--|
D|---------------2-------2---2---2---2---|-----------2-------2-------2-2--|
A|-----------0---0-------0-------0-------|-------0---0-------0---0---0-0--|
E|-0-3---4-------0---0---0-------0-------|-0h3-------0---0---0-------0-0--|

e|-----------0-------0-------0-0--|-----------0-------0-------0--------|
B|-----------1-------1-------1-1--|-----------1-------1-------1--------|
G|-----------2-------2-------2-2--|-----------2-------2-------2--------|
D|-----------2-------2-------2-2--|-----------2-------2---2---2--------|
A|-------0---0-------0---0---0-0--|-------0---0-------0-------0--------|
E|-0h3-------0---0---0-------0-0--|-0h3-------0---0---0-------0---0h3--|

Am                       G
White boy tryin' to get some behind
D
"Who says date rape isn't kind?"
Am                       G
Where's he gonna go? Who's he gonna please?
D
It don't matter as long as she's on her knees

e|---------------0-------0-------0-0--|-----------0-------0-0-0-0--|
B|---------------1-------1-------1-1--|-----------1-------1-1-1-1--|
G|---------------2-------2-------2-2--|-----------2-------2-2-2-2--|
D|---------------2-------2-------2-2--|-----------2-------2-2-2-2--|
A|-----------0---0-------0---0---0-0--|-------0---0-------0-0-0-0--|
E|-0-3---4-------0---0---0-------0-0--|-0h3-------0---0---0-0-0-0--|

Am                   G
White Trash get down on your knees
D
Time for cake and sodomy
Am                   G
White Trash get down on your knees
D
Time for cake and sodomy

e|------0-------0-------0-0--|-----------0-------0-------0-0--|
B|------1-------1-------1-1--|-----------1-------1-------1-1--|
G|------2-------2-------2-2--|-----------2-------2-------2-2--|
D|------2-------2-------2-2--|-----------2-------2-------2-2--|
A|-0----0-------0---0---0-0--|-------0---0-------0-------0-0--|
E|------0---0---0-------0-0--|-0h3-------0---0---0---0---0-0--|

e|-----------0-------0-------0-0--|-----------0-------0-|
B|-----------1-------1-------1-1--|-----------1-------1-|
G|-----------2-------2-------2-2--|-----------2-------2-|
D|-----------2-------2-------2-2--|-----------2-------2-|
A|-------0---0-------0---0---0-0--|-------0---0-------0-|
E|-0h3-------0---0---0-------0-0--|-0h3-------0---0---0-|


Tap to rate this tab
# A B C D E F G H I J K L M N O P Q R S T U V W X Y Z