Song name
# A B C D E F G H I J K L M N O P Q R S T U V W X Y Z

Marilyn Manson - Vodevil tab

Intro
e------------------------------------------------------------|
B------------------------------------------------------------|
G--7/10--7-7-7-7-7-7-7-0-5-5-5-5-5-5-5-5--10-10-10-10-10-10--|
D------------------------------------------------------------|
A------------------------------------------------------------|
D------------------------------------------------------------|


Pre-Chorus
e------------------------------------------------------------|
B------------------------------------------------------------|
G-------------------------------------9--7--9--7--9-7--------|
D--3-3-3-3-3-3-3-3-3-3-3-3-3-5-5-5-5--x--x--x--x--x-x--------|
A--3-3-3-3-3-3-3-3-3-3-3-3-3-5-5-5-5--7--5--7--5--7-5--------|
D--3-3-3-3-3-3-3-3-3-3-3-3-3-5-5-5-5--0--0--0--0--0-0--------|
("Kiss baby, kiss")

(play above three times then:)
e------------------------------------------------------------|
B------------------------------------------------------------|
G------------------------------------------------------------|
D--3-3-3-3-3-3-3-3-3-3-3-3-3-3-3-3-3--1-1-1-1-1-1-1-1-1-1----|
A--3-3-3-3-3-3-3-3-3-3-3-3-3-3-3-3-3--1-1-1-1-1-1-1-1-1-1----|
D--3-3-3-3-3-3-3-3-3-3-3-3-3-3-3-3-3--1-1-1-1-1-1-1-1-1-1----|

(continued)
e------------------------------------------------------------|
B------------------------------------------------------------|
G------------------------------------------------------------|
D--1-1-1-1-1-1-----------------------------------------------|
A--1-1-1-1-1-1-----------------------------------------------|
D--1-1-1-1-1-1-----------------------------------------------|


Chorus                                                end on
e--------------------------------------------------------|---|
B--------------------------------------------------------|---|
G--------------------------------------------------------|---|
D--0-0-0-0----0-0-0-0----0-0-----0-3--0-3--0-5--0-5--0-6-|-0-|
A--0-0-0-0-5--0-0-0-0-5--0-0-5---0-3--0-3--0-5--0-5--0-6-|-0-|
D--0-0-0-0-0--0-0-0-0-0--0-0-0---0-3--0-3--0-5--0-5--0-6-|-0-|
("This isn't music...")


Fill
e------------------------------------------------------------|
B------------------------------------------------------------|
G------------------------------------------------------------|
D--7-------------------7---------7--------7--------7---------|
A------------------------------------------------------------|
D------------------------------------------------------------|


Outro
e---------------|
B---------------|
G---------------|
D---11----------|
A---11----------|
D---11----------|


Structure of the Song......
Intro
Pre-Chorus
Chorus
Pre-Chorus
Chorus
Fill
Pre-Chorus
Chorus
Outro

Good luck
Tap to rate this tab
# A B C D E F G H I J K L M N O P Q R S T U V W X Y Z