Guitaretab - guitar tabs
Song name
# A B C D E F G H I J K L M N O P Q R S T U V W X Y Z

Marilyn Manson - Redeemer tab

Marilyn manson/ Korn - Redeemer
Tabbed By- (.:~Russell~:.)

Tuning- Drop D

 intro

e|------19-17-15-14-12-14---15--------|
b|12----------------------------------|
g|------------------------------------|
d|------------------------------------|
a|------------------------------------|
D|------------------------------------|

 |------19--17-15-12-14~~~------------|
 |12----------------------------------|
 |------------------------------------|
 |------------------------------------|
 |------------------------------------|
 |------------------------------------|

[ Tab from: http://www.guitaretab.com/m/marilyn-manson/58381.html ]
 Verses
                                       x4
 |------------------------------------|
 |------------------------------------|
 |------------------------------------|
 |------------------------------------|
 |5-----57p5-4------2-------0---------|
 |------------------------------------|


 Chorus
                                   x4
 |--------------------------------|
 |--------------------------------|
 |--------6-6-7-7-9-9-9-9-9-9-9-9-|
 |9-9-9-9-6-6-7-7-9-9-9-9-9-9-9-9-|
 |9-9-9-9-4-4-5-5-7-7-7-7-7-7-7-7-|
 |9-9-9-9-------------------------|

And thats pretty much the whole song. Pretty repetetive I know. Anyways,            Enjoy!  \m/ ***
Related for Redeemer tab
Advertisement will be closed in 10 seconds