Song name
# A B C D E F G H I J K L M N O P Q R S T U V W X Y Z

Marilyn Manson - You Spin Me Around tab

-------------------------------------------------------------------------------
			     YOU SPIN ME AROUND - Marilyn manson
-------------------------------------------------------------------------------
Tabbed by: Twig
Email: nexus1101@hotmail.co.uk

Tuning: Standard EADGBE

I worked out the bass for this song so i thought id stick the guitar tab on too.
Its pretty similar, but the guitar has some solos and stuff so here it is. Lots of
distortion is needed for this song.


Intro
e|--------------------------|
B|--------------------------|
G|--------------------------|
D|-4--4--4--4--7--7--2--2---|
A|-4--4--4--4--7--7--2--2---|
E|-2--2--2--2--5--5--0--0---|

e|---------------------------------------------------------------------------|
B|---------------------------------------------------------------------------|
G|-------------------------------------------------4-4-4-4-------------------|
D|-4-4-4-4-4-4-4-4-7-7-7-7-2-2-2-2-4-4-4-4-4-4-4-4-4-4-4-4-2-2-2-2-----------|
A|-4-4-4-4-4-4-4-4-7-7-7-7-2-2-2-2-4-4-4-4-4-4-4-4-2-2-2-2-2-2-2-2-----------|
E|-2-2-2-2-2-2-2-2-5-5-5-5-0-0-0-0-2-2-2-2-2-2-2-2---------0-0-0-0-----------|

e|-9-9-9-9-7-7-7-7-5-5-5-5-4-4-4-4-2-2-2-2-2-2-2-2---------------------------|
B|---------------------------------------------------------------------------|
G|---------------------------------------------------------------------------|
D|-------------------------------------------------2-2-4-2-4-----------------|
A|-------------------------------------------------2-2-4-2-4-----------------|
E|-------------------------------------------------0-0-2-0-2-----------------|


Verses (play twice)
e|---------------------------------------------------------------------------|
B|---------------------------------------------------------------------------|
G|---------------------------------2-4-4-4-4-4-4-4-2-4-4-4-4-4-4-4-----------|
D|-2-4-4-4-4-4-4-4-2-4-4-4-4-4-4-4-2-4-4-4-4-4-4-4-2-4-4-4-4-4-4-4-----------|
A|-2-4-4-4-4-4-4-4-2-4-4-4-4-4-4-4-0-2-2-2-2-2-2-2-0-2-2-2-2-2-2-2-----------|
E|-0-2-2-2-2-2-2-2-0-2-2-2-2-2-2-2-------------------------------------------|

e|----------------------------------------7-7-7-7-7-7-7-7-9-9-9-9-9-9-9-9----|
B|-7-7-7-7-7-7-7-7-10-10-10-10-10-10-10-10-----------------------------------|
G|---------------------------------------------------------------------------|
D|---------------------------------------------------------------------------|
A|---------------------------------------------------------------------------|
E|---------------------------------------------------------------------------|


Mini guitar solos (one at 1:58, the other at 2:27)
e|----------------------------------7-7-7-7-7-7-7-7--------------------------|
B|-7-7-7-7-7-7-7-7-10-7--10--7--10-------------------7--10--7----------------|
G|---------------------------------------------------------------------------|
D|---------------------------------------------------------------------------|
A|---------------------------------------------------------------------------|
E|---------------------------------------------------------------------------|


Rhythm guitar plays this underneeth the lead 
e|---------------------------------------------------------------------------|
B|---------------------------------------------------------------------------|
G|---------------------------------4-4-4-4-4-4-4-4-4-4-4-4-4-4-4-4-----------|
D|-4-4-4-4-4-4-4-4-4-4-4-4-4-4-4-4-4-4-4-4-4-4-4-4-4-4-4-4-4-4-4-4-----------|
A|-4-4-4-4-4-4-4-4-4-4-4-4-4-4-4-4-2-2-2-2-2-2-2-2-2-2-2-2-2-2-2-2-----------|
E|-2-2-2-2-2-2-2-2-2-2-2-2-2-2-2-2-------------------------------------------|


Outro
e|-9-9-9-9-7-7-7-7-5-5-5-5-4-4-4-4-2-2-2-2-2-2-2-2---------------------------|
B|---------------------------------------------------------------------------|
G|---------------------------------------------------------------------------|
D|-------------------------------------------------2-2-4-2-4-----------------|
A|-------------------------------------------------2-2-4-2-4-----------------|
E|-------------------------------------------------0-0-2-0-2-----------------|

| /  slide up
| \  slide down
| h  hammer-on
| p  pull-off
| ~  vibrato
| +  harmonic
| x  Mute note
===============================================================================
Tap to rate this tab
# A B C D E F G H I J K L M N O P Q R S T U V W X Y Z