Song name
# A B C D E F G H I J K L M N O P Q R S T U V W X Y Z

Marilyn Manson - Golden Age Of Grotesque tab

1. Intro  
2. This Is The New Sh*t    
3. mOBSCENE  
4. Doll-Dagga Buzz-Buzz Ziggety-Zag   
5. Use Your Fist And Not Your Mouth    
6. The Golden Age Of Grotesque    
7. (s)AINT   
8. Ka-Boom Ka-Boom    
9. Slutgarden   
10. Spade  
11. Para-noir  
12. The Bright Young Things  
13. Better Of Two Evils  
14. Vodevil  
15. Obsequy (The Death Of Art)  
16. Tainted Love


1. Intro

No guitar.

2. This is the new Sh*t

|---------------------------------------------------------|
|---------------------------------------------------------|
|---------------------------------------------------------|
|---------------------------------------------------------|
|--5--5--5--5----5--5--5--5----5--5--5--5--5--5--5--5--5--|
|--0--0--0--0----0--0--0--0----0--0--0--0--0--0--0--0--0--|

|---------------------------------------------------------|
|---------------------------------------------------------|
|---------------------------------------------------------|
|---------------------------------------------------------|
|--5--5---5--5---5--5--5--5--5----------------------------|
|--0--0---0--0---0--0--0--0--0----------------------------|


|-------------------------|-------------------------------|
|-------------------------|-------------------------------|
|-------------------------|-------------------------------|
|-------------------------|-------------------------------|
|--5--5--5--5--5--5-------|--5--5--5--5--5--5----19^------|
|--0--0--0--0--0--0-------|--0--0--0--0--0--0----19^------|
  |______P.M_______|       |______P.M.______| 

|-------------------------|-------------------------------|
|-------------------------|-------------------------------|
|-------------------------|-------------------------------|
|-------------------------|-------------------------------|
|--5--5--5--5--5--5-------|--5--5--5--5--5--5----17^------|
|--0--0--0--0--0--0-------|--0--0--0--0--0--0----17^------|
  |______P.M_______|       |_______P.M._____|

Riff 1 - x2 -  

|-------------------------|-------------------------------|
|-------------------------|-------------------------------|
|-------------------------|-------------------------------|
|-------------------------|-------------------------------| 
|--5--5--5--5--5----------|--5--5--5--5--5----------------|
|--0--0--0--0--0----------|--0--0--0--0--0----------------|
  |____P.M._____|           |_____P.M.____|

Riff 2

|---------------------------------------------------------|
|------------------11--------11---------------------------|
|--14--14--14--14--------14------12--14-------------------|
|---------------------------------------------------------|
|---------------------------------------------------------|
|---------------------------------------------------------|

|---------------------------------------------------------|
|------------------11--------11---------------------------|
|--14--14--14--14--------14------12-----------------------|
|---------------------------------------------------------|
|---------------------------------------------------------|
|---------------------------------------------------------|


|---------------------------------------------------------|
|------------------11--------11---------------------------|
|--14--14--14--14--------14------12--14-------------------|
|---------------------------------------------------------|
|---------------------------------------------------------|
|---------------------------------------------------------|

|---------------------------------------------------------|
|------------------11--------11---------------------------|
|--14--14--14--14--------14------12-----------------------|
|---------------------------------------------------------|
|---------------------------------------------------------|
|---------------------------------------------------------|


Chorus-x2

|---------------------------------------------------------|
|---------------------------------------------------------|
|---------------------------------------------------------|
|---------------------------------------------------------|
|---------------------------------------------------------|
|--12--0--0--12--0--0--12--0--0--12--0--0--0--15--0--0----|


|---------------------------------------------------------|
|---------------------------------------------------------|
|---------------------------------------------------------|
|---------------------------------------------------------|
|---------------------------------------------------------|
|--15--0--0--15--0--0-----15--0--0--10--0--0--10--0--0----|

|---------------------------------------------------------|
|---------------------------------------------------------|
|---------------------------------------------------------|
|---------------------------------------------------------|
|---------------------------------------------------------|
|---10--0--0--10--0--0--12--0--0--12--0--0--12--0--0------|

|---------------------------------------------------------|
|---------------------------------------------------------|
|---------------------------------------------------------|
|---------------------------------------------------------|
|---------------------------------------------------------|
|--12--0--0--10--12--10-----------------------------------|

Riff-x3

|---------------------------------------------------------|
|------------------11--------11---------------------------|
|--14--14--14--14--------14------12--14-------------------|
|---------------------------------------------------------|
|---------------------------------------------------------|
|---------------------------------------------------------|

|---------------------------------------------------------|
|------------------11--------11---------------------------|
|--14--14--14--14--------14------12-----------------------|
|---------------------------------------------------------|
|---------------------------------------------------------|
|---------------------------------------------------------|


|---------------------------------------------------------|
|------------------11--------11---------------------------|
|--14--14--14--14--------14------12--14-------------------|
|---------------------------------------------------------|
|---------------------------------------------------------|
|---------------------------------------------------------|

|---------------------------------------------------------|
|------------------11--------11---------------------------|
|--14--14--14--14--------14------12\----------------------|
|---------------------------------------------------------|
|---------------------------------------------------------|
|---------------------------------------------------------|

Chorus-x2

|---------------------------------------------------------|
|---------------------------------------------------------|
|---------------------------------------------------------|
|---------------------------------------------------------|
|---------------------------------------------------------|
|--12--0--0--12--0--0--12--0--0--12--0--0--0--15--0--0----|


|---------------------------------------------------------|
|---------------------------------------------------------|
|---------------------------------------------------------|
|---------------------------------------------------------|
|---------------------------------------------------------|
|--15--0--0--15--0--0------
15--0--0--10--0--0--10--0--0---|

|---------------------------------------------------------|
|---------------------------------------------------------|
|---------------------------------------------------------|
|---------------------------------------------------------|
|---------------------------------------------------------|
|---10--0--0--10--0--0--12--0--0--12--0--0--12--0--0------|

|---------------------------------------------------------|
|---------------------------------------------------------|
|---------------------------------------------------------|
|---------------------------------------------------------|
|---------------------------------------------------------|
|--12--0--0--10--12--10-----------------------------------|

Bridge-x3

|---------------------------------------------------------|
|---------------------------------------------------------|
|---------------------------------------------------------|
|---------------------------------------------------------|
|--5--5--5--5--6--6--6--6--5--5--5--5/6--6--6\5--5--5--5--|
|--5--5--5--5--6--6--6--6--5--5--5--5/6--6--6\5--5--5--5--|

Riff

|---------------------------------------------------------|
|------------------11--------11---------------------------|
|--14--14--14--14--------14------12--14-------------------|
|---------------------------------------------------------|
|---------------------------------------------------------|
|---------------------------------------------------------|

|---------------------------------------------------------|
|------------------11-------------------------------------|
|--14--14--14--14--------14-------------------------------|
|---------------------------------------------------------|
|---------------------------------------------------------|
|---------------------------------------------------------|


|---------------------------------------------------------|
|------------------11--------11---------------------------|
|--14--14--14--14--------14------12--14-------------------|
|---------------------------------------------------------|
|---------------------------------------------------------|
|---------------------------------------------------------|

|---------------------------------------------------------|
|------------------11-------------------------------------|
|--14--14--14--14--------14-------------------------------|
|---------------------------------------------------------|
|---------------------------------------------------------|
|---------------------------------------------------------|

Chorus-x2

|---------------------------------------------------------|
|---------------------------------------------------------|
|---------------------------------------------------------|
|---------------------------------------------------------|
|---------------------------------------------------------|
|--12--0--0--12--0--0--12--0--0--12--0--0--0--15--0--0----|


|---------------------------------------------------------|
|---------------------------------------------------------|
|---------------------------------------------------------|
|---------------------------------------------------------|
|---------------------------------------------------------|
|--15--0--0--15--0--0------15--0--0--10--0--0--10--0--0---|

|---------------------------------------------------------|
|---------------------------------------------------------|
|---------------------------------------------------------|
|---------------------------------------------------------|
|---------------------------------------------------------|
|---10--0--0--10--0--0--12--0--0--12--0--0--12--0--0------|

|---------------------------------------------------------|
|---------------------------------------------------------|
|---------------------------------------------------------|
|---------------------------------------------------------|
|---------------------------------------------------------|
|--12--0--0--10--12--10-----------------------------------|

Outro

|-------------------------|-------------------------------|
|-------------------------|-------------------------------|
|-------------------------|-------------------------------|
|-------------------------|-------------------------------|
|--5--5--5--5--5--5-------|--5--5--5--5--5--5-------------|
|--0--0--0--0--0--0-------|--0--0--0--0--0--0-------------|
  |______P.M_______|       |______P.M.______| 

Gtr. 1 - x3
|---------------------------------------------------------|
|------------------11--------11---------------------------|
|--14--14--14--14--------14------12--14-------------------|
|---------------------------------------------------------|
|---------------------------------------------------------|
|---------------------------------------------------------|

|---------------------------------------------------------|
|------------------11--------11---------------------------|
|--14--14--14--14--------14------12-----------------------|
|---------------------------------------------------------|
|---------------------------------------------------------|
|---------------------------------------------------------|


|---------------------------------------------------------|
|------------------11--------11---------------------------|
|--14--14--14--14--------14------12--14-------------------|
|---------------------------------------------------------|
|---------------------------------------------------------|
|---------------------------------------------------------|

|---------------------------------------------------------|
|------------------11--------11---------------------------|
|--14--14--14--14--------14------12-----------------------|
|---------------------------------------------------------|
|---------------------------------------------------------|
|---------------------------------------------------------|

Gtr. 2
|---------------------------------------------------------|
|---------------------------------------------------------|
|---------------------------------------------------------|
|---------------------------------------------------------|
|--5--5--5--5--5--5--5--5--5--5--5--5--5--5--5------------|
|--0--0--0--0--0--0--0--0--0--0--0--0--0--0--0------------|

|---------------------------------------------------------|
|---------------------------------------------------------|
|---------------------------------------------------------|
|--5--5--5--5--5--5--5--5--5--5--5--5--5--5--5------------|
|--0--0--0--0--0--0--0--0--0--0--0--0--0--0--0------------|
|---------------------------------------------------------|

|---------------------------------------------------------|
|---------------------------------------------------------|
|---------------------------------------------------------|
|---------------------------------------------------------|
|--6--6--6--6--6--6--6--6--6--6--6--6--6--6--6------------|
|--0--0--0--0--0--0--0--0--0--0--0--0--0--0--0------------|

|---------------------------------------------------------|
|---------------------------------------------------------|
|---------------------------------------------------------|
|---------------------------------------------------------|
|--5--5--5--5--5--5--5--5--5--5--5--5--5--5--5------------|
|--0--0--0--0--0--0--0--0--0--0--0--0--0--0--0------------|


3. mOBSCENE

|------------------------------------------------------------------------|
|------------------------------------------------------------------------|
|------------------------------------------------------------------------|
|---2-2-2-2-5-5-2-7--2-2-5-2--0-2-0--------------------------------------| x4
|---2-2-2-2-5-5-2-7--2-2-5-2--0-2-0--------------------------------------|
|---2-2-2-2-5-5-2-7--2-2-5-2--0-2-0--------------------------------------|

Verse

|------------------------------------------------------------------------|
|------------------------------------------------------------------------|
|------------------------------------------------------------------------|
|---x-x-x-x-x-0-2-0------------------------------------------------------|x8
|---x-x-x-x-x-0-2-0------------------------------------------------------|
|---x-x-x-x-x-0-2-0------------------------------------------------------|

Pre-Chorus - 
|------------------------------------------------------------------------|
|---6tp--\--5tp----------------------------------------------------------|
|------------------------------------------------------------------------|
|------------------------------------------------------------------------|x4
|------------------------------------------------------------------------|
|------------------------------------------------------------------------|

Chorus

|------------------------------------------------------------------------|
|------------------------------------------------------------------------|
|------------------------------------------------------------------------|
|---2-2-2-2-5-5-2-7--2-2-5-2--0-2-0--------------------------------------|x4
|---2-2-2-2-5-5-2-7--2-2-5-2--0-2-0--------------------------------------|
|---2-2-2-2-5-5-2-7--2-2-5-2--0-2-0--------------------------------------|

Bridge - 
|------------------------------------------------------------------------|
|------------------------------------------------------------------------|
|------------------------------------------------------------------------|
|---7-7-7-7-7-7-7-7--10-10-10-10-10-10-10-10-----------------------------|x3
|---7-7-7-7-7-7-7-7--10-10-10-10-10-10-10-10-----------------------------|
|---7-7-7-7-7-7-7-7--10-10-10-10-10-10-10-10-----------------------------|

|------------------------------------------------------------------------|
|------------------------------------------------------------------------|
|------------------------------------------------------------------------|
|---8-8-8-8-8-8-8-8-8-8-8-8-8-8-8-8--------------------------------------|
|---8-8-8-8-8-8-8-8-8-8-8-8-8-8-8-8--------------------------------------|
|---8-8-8-8-8-8-8-8-8-8-8-8-8-8-8-8--------------------------------------|

Verse

|------------------------------------------------------------------------|
|------------------------------------------------------------------------|
|------------------------------------------------------------------------|
|---x-x-x-x-x-0-2-0------------------------------------------------------x12
|---x-x-x-x-x-0-2-0------------------------------------------------------|
|---x-x-x-x-x-0-2-0------------------------------------------------------|

Pre-Chorus

|------------------------------------------------------------------------|
|---6tp\5tp--------------------------------------------------------------|
|------------------------------------------------------------------------|
|------------------------------------------------------------------------|x4
|------------------------------------------------------------------------|
|------------------------------------------------------------------------|
  tp = tremelo pick

Chorus

|------------------------------------------------------------------------|
|------------------------------------------------------------------------|
|------------------------------------------------------------------------|
|---2-2-2-2-5-5-2-7--2-2-5-2--0-2-0--------------------------------------|x4
|---2-2-2-2-5-5-2-7--2-2-5-2--0-2-0--------------------------------------|
|---2-2-2-2-5-5-2-7--2-2-5-2--0-2-0--------------------------------------|

Bridge

|------------------------------------------------------------------------|
|------------------------------------------------------------------------|
|------------------------------------------------------------------------|
|---7-7-7-7-7-7-7-7--10-10-10-10-10-10-10-10-----------------------------|x3
|---7-7-7-7-7-7-7-7--10-10-10-10-10-10-10-10-----------------------------|
|---7-7-7-7-7-7-7-7--10-10-10-10-10-10-10-10-----------------------------|

|------------------------------------------------------------------------|
|------------------------------------------------------------------------|
|------------------------------------------------------------------------|
|---8-8-8-8-8-8-8-8-8-8-8-8-8-8-8-8--------------------------------------|
|---8-8-8-8-8-8-8-8-8-8-8-8-8-8-8-8--------------------------------------|
|---8-8-8-8-8-8-8-8-8-8-8-8-8-8-8-8--------------------------------------|

Bridge2 + Chorus

|------------------------------------------------------------------------|
|------------------------------------------------------------------------|
|------------------------------------------------------------------------|
|---x-x-x-x-x-0-2-0------------------------------------------------------x16
|---x-x-x-x-x-0-2-0------------------------------------------------------|
|---x-x-x-x-x-0-2-0------------------------------------------------------|

Bridge

|------------------------------------------------------------------------|
|------------------------------------------------------------------------|
|------------------------------------------------------------------------|
|---7-7-7-7-7-7-7-7--10-10-10-10-10-10-10-10-----------------------------|x3
|---7-7-7-7-7-7-7-7--10-10-10-10-10-10-10-10-----------------------------|
|---7-7-7-7-7-7-7-7--10-10-10-10-10-10-10-10-----------------------------|

|------------------------------------------------------------------------|
|------------------------------------------------------------------------|
|------------------------------------------------------------------------|
|---8-8-8-8-8-8-8-8-8-8-8-8-8-8-8-8--------------------------------------|
|---8-8-8-8-8-8-8-8-8-8-8-8-8-8-8-8--------------------------------------|
|---8-8-8-8-8-8-8-8-8-8-8-8-8-8-8-8--------------------------------------|

Bridge3 - 

(Tacet)
|------------------------------------------------------------------------|
|------------------------------------------------------------------------|
|------------------------------------------------------------------------|
|---2-2-2-2-5-5-2-7--2-2-5-2--0-2-0--------------------------------------x2 
|---2-2-2-2-5-5-2-7--2-2-5-2--0-2-0--------------------------------------|
|---2-2-2-2-5-5-2-7--2-2-5-2--0-2-0--------------------------------------|

|------------------------------------------------------------------------|
|------------------------------------------------------------------------|
|------------------------------------------------------------------------|
|---2-2-2-2-5-5-2-7--2-2-5-2--0-2-0--------------------------------------|x3
|---2-2-2-2-5-5-2-7--2-2-5-2--0-2-0--------------------------------------|
|---2-2-2-2-5-5-2-7--2-2-5-2--0-2-0--------------------------------------|

|------------------------------------------------------------------------|
|------------------------------------------------------------------------|
|------------------------------------------------------------------------|
|---2-2-2-2-5-5-2-(7----)------------------------------------------------|
|---2-2-2-2-5-5-2-(7-x36)------------------------------------------------|
|---2-2-2-2-5-5-2-(7----)------------------------------------------------|

|------------------------------------------------------------------------|
|------------------------------------------------------------------------|
|------------------------------------------------------------------------|
|---2-2-2-2-5-5-2-2------------------------------------------------------|
|---2-2-2-2-5-5-2-2------------------------------------------------------|
|---2-2-2-2-5-5-2-2------------------------------------------------------|


4.Doll-Dagga Buzz-Buzz Ziggety-Zag 

|------------------------------------------------------------------------|
|------------------------------------------------------------------------|
|------------------------------------------------------------------------|
|---2--2--2-2-5-2--2-5-2-5-2--5-5-5-5-5-2--------------------------------| x2
|---2--2--2-2-5-2--2-5-2-5-2--5-5-5-5-5-2--------------------------------|
|---2--2--2-2-5-2--2-5-2-5-2--5-5-5-5-5-2--------------------------------|

Verse 1 - (no guitar)

Bridge

|------------------------------------------------------------------------|
|------------------------------------------------------------------------|
|------------------------------------------------------------------------|
|---2--2--2-2-5-2--2-5-2-5-2--5-5-5-5-5-2--------------------------------|
|---2--2--2-2-5-2--2-5-2-5-2--5-5-5-5-5-2--------------------------------|
|---2--2--2-2-5-2--2-5-2-5-2--5-5-5-5-5-2--------------------------------|

Verse 2

|------------------------------------------------------------------------|
|------------------------------------------------------------------------|
|------------------------------------------------------------------------|
|---2----2-5-2----5-5-5-5-5-5-2----2-5-2----5-5-5-5-5-5------------------|
|---2----2-5-2----5-5-5-5-5-5-2----2-5-2----5-5-5-5-5-5------------------|
|---2----2-5-2----5-5-5-5-5-5-2----2-5-2----5-5-5-5-5-5------------------|

Pre-Chorus - 

|------------------------------------------------------------------------|
|------------------------------------------------------------------------|
|------------------------------------------------------------------------|
|---x-x--x-x--x-x--x-x---------------------------------------------------| x4
|---x-x--x-x--x-x--x-x---------------------------------------------------|
|---x-x--x-x--x-x--x-x---------------------------------------------------|

|------------------------------------------------------------------------|
|------------------------------------------------------------------------|
|------------------------------------------------------------------------|
|------------------------------------------------------------------------| x2
|---7v--/--8v--/--9v--/--10v---------------------------------------------|
|------------------------------------------------------------------------|

Chorus - 
|------------------------------------------------------------------------|
|------------------------------------------------------------------------|
|------------------------------------------------------------------------|
|---9----8----5--7--2----------------------------------------------------| x2
|---9----8----5--7--2----------------------------------------------------|
|---9----8----5--7--2----------------------------------------------------|

Bridge - 

|------------------------------------------------------------------------|
|------------------------------------------------------------------------|
|------------------------------------------------------------------------|
|---2--2--2-2-5-2--2-5-2-5-2--5-5-5-5-5-2--------------------------------| x2
|---2--2--2-2-5-2--2-5-2-5-2--5-5-5-5-5-2--------------------------------|
|---2--2--2-2-5-2--2-5-2-5-2--5-5-5-5-5-2--------------------------------|

Verse

|------------------------------------------------------------------------|
|------------------------------------------------------------------------|
|------------------------------------------------------------------------|
|---2----2-5-2----5-5-5-5-5-5-2----2-5-2----5-5-5-5-5-5------------------| x2
|---2----2-5-2----5-5-5-5-5-5-2----2-5-2----5-5-5-5-5-5------------------|
|---2----2-5-2----5-5-5-5-5-5-2----2-5-2----5-5-5-5-5-5------------------|

Pre-Chorus

|------------------------------------------------------------------------|
|------------------------------------------------------------------------|
|------------------------------------------------------------------------|
|---x-x--x-x--x-x--x-x---------------------------------------------------| x4
|---x-x--x-x--x-x--x-x---------------------------------------------------|
|---x-x--x-x--x-x--x-x---------------------------------------------------|

|------------------------------------------------------------------------|
|------------------------------------------------------------------------|
|------------------------------------------------------------------------|
|------------------------------------------------------------------------| x2
|---7v--/--8v--/--9v--/--10v---------------------------------------------|
|------------------------------------------------------------------------|

Chorus

|------------------------------------------------------------------------|
|------------------------------------------------------------------------|
|------------------------------------------------------------------------|
|---9----8----5--7--2----------------------------------------------------| x2
|---9----8----5--7--2----------------------------------------------------|
|---9----8----5--7--2----------------------------------------------------|

Bridge

|------------------------------------------------------------------------|
|------------------------------------------------------------------------|
|------------------------------------------------------------------------|
|---2--2--2-2-5-2--2-5-2-5-2--5-5-5-5-5-2--------------------------------| x2
|---2--2--2-2-5-2--2-5-2-5-2--5-5-5-5-5-2--------------------------------|
|---2--2--2-2-5-2--2-5-2-5-2--5-5-5-5-5-2--------------------------------|

Middle Section

Gtr. 2
|------------------------------------------------------------------------|
|------------------------------------------------------------------------|
|------------------------------------------------------------------------|
|---9-11-12--x-x-x--9h11p9--9h11p9--9h11p9--9h11p9-----------------------|
|------------------------------------------------------------------------|
|------------------------------------------------------------------------|\
                                                                           | x2
|------------------------------------------------------------------------|/
|------------------------------------------------------------------------|
|------------------------------------------------------------------------|
|---9-11-12--x-x-x--9-11-9--9-11-9--9h11p9h11p9h11p9---------------------|
|------------------------------------------------------------------------|
|------------------------------------------------------------------------|

Gtr. 1
|------------------------------------------------------------------------|
|----------11b-----------------------------------------------------------|
|---9h12---9b----9h12--9\------------------------------------------------|
|------------------------------------------------------------------------| x2
|------------------------------------------------------------------------|
|------------------------------------------------------------------------|

|------------------------------------------------------------------------|
|------------------------------------------------------------------------|
|------------------------------------------------------------------------|
|------------------------------------------------------------------------| x2
|---7v--/--8v--/--9v--/--10v---------------------------------------------|
|------------------------------------------------------------------------|

Chorus

|------------------------------------------------------------------------|
|------------------------------------------------------------------------|
|------------------------------------------------------------------------|
|---9----8----5--7--2----------------------------------------------------| x2
|---9----8----5--7--2----------------------------------------------------|
|---9----8----5--7--2----------------------------------------------------|

Outro

|------------------------------------------------------------------------|
|------------------------------------------------------------------------|
|------------------------------------------------------------------------|
|-----8---8---8----7---7----5---5---5---5--------------------------------| x6
|---7---7---7----7---7----7---7---7---7---7------------------------------|
|------------------------------------------------------------------------|

|------------------------------------------------------------------------|
|------------------------------------------------------------------------|
|------------------------------------------------------------------------|
|-------2----------------------------------------------------------------|
|-------2----------------------------------------------------------------|
|---2v--2----------------------------------------------------------------|


5.Use Your Fist And Not Your Mouth    

|------------------------------------------------------------------------|
|------------------------------------------------------------------------|
|------------10b----------7b---------------------------------------------|
|---2-2-2-2--10b-2-2-2-2--7b---------------------------------------------| x3
|---2-2-2-2--8b--2-2-2-2--5b---------------------------------------------|
|---2-2-2-2------2-2-2-2-------------------------------------------------|

|----------------------------10------------------------------------------|
|------------------------------------------------------------------------|
|-----------10-------7---------------------------------------------------|
|---2-2-2-2-10--2-2--7--2-2----------------------------------------------|
|---2-2-2-2-8---2-2--5--2-2----------------------------------------------|
|---2-2-2-2-----2-2-----2-2----------------------------------------------|

|------------------------------------------------------------------------|
|------------------------------------------------------------------------|
|------------10b----------7b---------------------------------------------|
|---2-2-2-2--10b-2-2-2-2--7b---------------------------------------------| x3
|---2-2-2-2--8b--2-2-2-2--5b---------------------------------------------|
|---2-2-2-2------2-2-2-2-------------------------------------------------|

|------------------------------------------------------------------------|
|------------------------------------------------------------------------|
|-----------10b------7-------7-------------------------------------------|
|---2-2-2-2-10b-2-2--7--2-2--7-------------------------------------------|
|---2-2-2-2-8b--2-2--5--2-2--5-------------------------------------------|
|---2-2-2-2-----2-2-----2-2----------------------------------------------|

Verse

|------------------------------------------------------------------------|
|------------------------------------------------------------------------|
|------------------------------------------------------------------------|
|---x/x/x/x/x/x/x/x-x-x-x/x-x-x-x-----x\x\x\x\x\x\x\x-x-x-x\x-x-x-x------| x4
|------------------------------------------------------------------------|
|------------------------------------------------------------------------|
  mute the string with your finger and slide up or down, listen to the song
  you'll hear what your supposed to do.

Chorus (x2)

|------------------------------------------------------------------------|
|------------------------------------------------------------------------|
|------------10b----------7b---------------------------------------------|
|---2-2-2-2--10b-2-2-2-2--7b---------------------------------------------| x3
|---2-2-2-2--8b--2-2-2-2--5b---------------------------------------------|
|---2-2-2-2------2-2-2-2-------------------------------------------------|

|------------------------------------------------------------------------|
|------------------------------------------------------------------------|
|-----------10b------7-------7-------------------------------------------|
|---2-2-2-2-10b-2-2--7--2-2--7-------------------------------------------|
|---2-2-2-2-8b--2-2--5--2-2--5-------------------------------------------|
|---2-2-2-2-----2-2-----2-2----------------------------------------------|

2nd Verse

Gtr. 1
|------------------------------------------------------------------------|
|------------------------------------------------------------------------|
|------------------------------------------------------------------------|
|---x/x/x/x/x/x/x/x-x-x-x/x-x-x-x-----x\x\x\x\x\x\x\x-x-x-x\x-x-x-x------| x4
|------------------------------------------------------------------------|
|------------------------------------------------------------------------|

Gtr. 2
|------------------------------------------------------------------------|
|------------------------------------------------------------------------|
|------------------------------------------------------------------------|
|---2-2---3-3---2-2---0-0---2-2---3-3---2-2---2-2------------------------| x2
|---2-2---3-3---2-2---0-0---2-2---3-3---2-2---2-2------------------------|
|---2-2---3-3---2-2---0-0---2-2---3-3---2-2---2-2------------------------|

Chorus (x2)

|------------------------------------------------------------------------|
|------------------------------------------------------------------------|
|------------10b----------7b---------------------------------------------|
|---2-2-2-2--10b-2-2-2-2--7b---------------------------------------------| x3
|---2-2-2-2--8b--2-2-2-2--5b---------------------------------------------|
|---2-2-2-2------2-2-2-2-------------------------------------------------|

|------------------------------------------------------------------------|
|------------------------------------------------------------------------|
|-----------10b------7-------7-------------------------------------------|
|---2-2-2-2-10b-2-2--7--2-2--7-------------------------------------------|
|---2-2-2-2-8b--2-2--5--2-2--5-------------------------------------------|
|---2-2-2-2-----2-2-----2-2----------------------------------------------|

Bridge - 
|------------------------------------------------------------------------|
|------------------------------------------------------------------------|
|-------------5-5--5-5---------------------------------------------------|
|---2-2--2-2--5-5--5-5--7-7--7-7--7-7--7-7-------------------------------| x2
|---2-2--2-2--3-3--3-3--7-7--7-7--7-7--7-7-------------------------------|
|---2-2--2-2------------7-7--7-7--7-7--7-7-------------------------------|

Verse

Gtr. 1
|------------------------------------------------------------------------|
|------------------------------------------------------------------------|
|------------------------------------------------------------------------|
|---x/x/x/x/x/x/x/x-x-x-x/x-x-x-x-----x\x\x\x\x\x\x\x-x-x-x\x-x-x-x------| x6
|------------------------------------------------------------------------|
|------------------------------------------------------------------------|

Gtr. 2 (joins in after Gtr. 1 does above riff twice)
|------------------------------------------------------------------------|
|------------------------------------------------------------------------|
|------------------------------------------------------------------------|
|---2-2---3-3---2-2---0-0---2-2---3-3---2-2---2-2------------------------| x2
|---2-2---3-3---2-2---0-0---2-2---3-3---2-2---2-2------------------------|
|---2-2---3-3---2-2---0-0---2-2---3-3---2-2---2-2------------------------|

(Tacet)
|------------------------------------------------------------------------|
|------------------------------------------------------------------------|
|------------------------------------------------------------------------|
|---2-2-2-2--3--2-2-2-2--0--2-2-2-2--3--2-2-0-2-2-0----------------------| x2 
|---2-2-2-2--3--2-2-2-2--0--2-2-2-2--3--2-2-0-2-2-0----------------------|
|---2-2-2-2--3--2-2-2-2--0--2-2-2-2--3--2-2-0-2-2-0----------------------|

Chorus (x4)

|------------------------------------------------------------------------|
|------------------------------------------------------------------------|
|------------10b----------7b---------------------------------------------|
|---2-2-2-2--10b-2-2-2-2--7b---------------------------------------------| x3
|---2-2-2-2--8b--2-2-2-2--5b---------------------------------------------|
|---2-2-2-2------2-2-2-2-------------------------------------------------|

|------------------------------------------------------------------------|
|------------------------------------------------------------------------|
|-----------10b------7-------7-------------------------------------------|
|---2-2-2-2-10b-2-2--7--2-2--7-------------------------------------------|
|---2-2-2-2-8b--2-2--5--2-2--5-------------------------------------------|
|---2-2-2-2-----2-2-----2-2----------------------------------------------|

Bridge/Outro - 

|------------------------------------------------------------------------|
|------------------------------------------------------------------------|
|-------------5-5--5-5---------------------------------------------------|
|---2-2--2-2--5-5--5-5--7-7--7-7--7-7--7-7-------------------------------| x2
|---2-2--2-2--3-3--3-3--7-7--7-7--7-7--7-7-------------------------------|
|---2-2--2-2------------7-7--7-7--7-7--7-7-------------------------------|


6. The golden age of grotesque


No guitar.


7.(S)aint

|------------------------------------------------------------------------|
|------------------------------------------------------------------------|
|------------------------------------------------------------------------|
|--------------------------5---------------------------------------------|
|--------8-8-8-8--5-0----5---5------5-5-------3-0-3----------------------| x4
|------------------------------------------------------------------------|
|---5-5---------------5---------5-5-------5-5----------------------------|

then wait for 2 bars and play the above twice

Pre-Chorus - "You wanted perfekt, you got your perfekt"

|------------------------------------------------------------------------|
|------------------------------------------------------------------------|
|------------------------------------------------------------------------|
|------------------------------------------------------------------------|
|---8-8-8-8-8-10-10---5-5-5-5-5-3-3--------------------------------------| x4
|---8-8-8-8-8-10-10---5-5-5-5-5-3-3--------------------------------------|
|---8-8-8-8-8-10-10---5-5-5-5-5-3-3--------------------------------------|

Chorus - "whats my name? whats my name?"

|------------------------------------------------------------------------|
|------------------------------------------------------------------------|
|------------------------------------------------------------------------|
|------------------------------------------------------------------------|
|---5-5---5-5---5-5---5--5-----------------------------------------------| x4
|---5-5---5-5---5-5---5--5-----------------------------------------------|
|---5-5---5-5---5-5---5--5-----------------------------------------------|

Bridge

(Tacet)
|------------------------------------------------------------------------|
|------------------------------------------------------------------------|
|------------------------------------------------------------------------|
|------------------------------------------------------------------------|
|---8-8-8-8-8-10-10---5-5-5-5-5-3-3--------------------------------------| x2 
|---8-8-8-8-8-10-10---5-5-5-5-5-3-3--------------------------------------|
|---8-8-8-8-8-10-10---5-5-5-5-5-3-3--------------------------------------|

Verse

|------------------------------------------------------------------------|
|------------------------------------------------------------------------|
|------------------------------------------------------------------------|
|--------------------------5---------------------------------------------|
|--------8-8-8-8--5-0----5---5------5-5-------3-0-3----------------------| x4
|------------------------------------------------------------------------|
|---5-5---------------5---------5-5-------5-5----------------------------|

Pre-Chorus

|------------------------------------------------------------------------|
|------------------------------------------------------------------------|
|------------------------------------------------------------------------|
|------------------------------------------------------------------------|
|---8-8-8-8-8-10-10---5-5-5-5-5-3-3--------------------------------------| x4
|---8-8-8-8-8-10-10---5-5-5-5-5-3-3--------------------------------------|
|---8-8-8-8-8-10-10---5-5-5-5-5-3-3--------------------------------------|

Chorus

|------------------------------------------------------------------------|
|------------------------------------------------------------------------|
|------------------------------------------------------------------------|
|------------------------------------------------------------------------|
|---5-5---5-5---5-5---5--5-----------------------------------------------| x4
|---5-5---5-5---5-5---5--5-----------------------------------------------|
|---5-5---5-5---5-5---5--5-----------------------------------------------|

Bridge

|------------------------------------------------------------------------|
|------------------------------------------------------------------------|
|------------------------------------------------------------------------|
|--------------------------5---------------------------------------------|
|--------8-8-8-8--5-0----5---5------5-5-------3-0-3----------------------| x3
|------------------------------------------------------------------------|
|---5-5---------------5---------5-5-------5-5----------------------------|

|------------------------------------------------------------------------|
|------------------------------------------------------------------------|
|------------------------------------------------------------------------|
|------------------------------------------------------------------------|
|---5-5---5-5---5-5---5--5-----------------------------------------------| x4
|---5-5---5-5---5-5---5--5-----------------------------------------------|
|---5-5---5-5---5-5---5--5-----------------------------------------------|

Pre-Chorus

|------------------------------------------------------------------------|
|------------------------------------------------------------------------|
|------------------------------------------------------------------------|
|------------------------------------------------------------------------|
|---8-8-8-8-8-10-10---5-5-5-5-5-3-3--------------------------------------| x4
|---8-8-8-8-8-10-10---5-5-5-5-5-3-3--------------------------------------|
|---8-8-8-8-8-10-10---5-5-5-5-5-3-3--------------------------------------|

Chorus

|------------------------------------------------------------------------|
|------------------------------------------------------------------------|
|------------------------------------------------------------------------|
|------------------------------------------------------------------------|
|---5-5---5-5---5-5---5--5-----------------------------------------------| x8
|---5-5---5-5---5-5---5--5-----------------------------------------------|
|---5-5---5-5---5-5---5--5-----------------------------------------------|



8. Ka-Boom Ka-Boom  

|------------------------------------------------------------------------|
|------------------------------------------------------------------------|
|------------------------------------------------------------------------|
|---10p9--9--9---9-x-9-x--9-10p9--9-9--9-7-------------------------------| x4
|---10p9--9--9---9-x-9-x--9-10p9--9-9--9-7-------------------------------|
|---10p9--9--9---9-x-9-x--9-10p9--9-9--9-7-------------------------------|

Pre-Chorus - "I won't do it with you, I'll do it to you"

|------------------------------------------------------------------------|
|------------------------------------------------------------------------|
|------------------------------------------------------------------------|
|---9-9--\--3-3--/--4-4--\-----------------------------------------------| x4
|---x-x--\--x-x--/--x-x--\-----------------------------------------------|
|---9-9--\--3-3--/--4-4--\-----------------------------------------------|

Chorus - "I like a big car, 'cuz I'm a big star"

|------------------------------------------------------------------------|
|------------------------------------------------------------------------|
|------------------------------------------------------------------------|
|--9-9-9-9-9-9-9-9--12-12-12-12-5-5-5-5--4-4-4-4-4-4-4-4-4-4-4-4-4-4-4-4-| x2
|--9-9-9-9-9-9-9-9--12-12-12-12-5-5-5-5--4-4-4-4-4-4-4-4-4-4-4-4-4-4-4-4-|
|--9-9-9-9-9-9-9-9--12-12-12-12-5-5-5-5--4-4-4-4-4-4-4-4-4-4-4-4-4-4-4-4-|

|------------------------------------------------------------------------|
|------------------------------------------------------------------------|
|------------------------------------------------------------------------|
|---10p9--9--9---9-x-9-x--9-10p9--9-9--9-7-------------------------------| x4
|---10p9--9--9---9-x-9-x--9-10p9--9-9--9-7-------------------------------|
|---10p9--9--9---9-x-9-x--9-10p9--9-9--9-7-------------------------------|

Pre-Chorus

|------------------------------------------------------------------------|
|------------------------------------------------------------------------|
|------------------------------------------------------------------------|
|---9-9--\--3-3--/--4-4--\-----------------------------------------------| x4
|---x-x--\--x-x--/--x-x--\-----------------------------------------------|
|---9-9--\--3-3--/--4-4--\-----------------------------------------------|

Chorus

|------------------------------------------------------------------------|
|------------------------------------------------------------------------|
|------------------------------------------------------------------------|
|--9-9-9-9-9-9-9-9--12-12-12-12-5-5-5-5--4-4-4-4-4-4-4-4-4-4-4-4-4-4-4-4-| x2
|--9-9-9-9-9-9-9-9--12-12-12-12-5-5-5-5--4-4-4-4-4-4-4-4-4-4-4-4-4-4-4-4-|
|--9-9-9-9-9-9-9-9--12-12-12-12-5-5-5-5--4-4-4-4-4-4-4-4-4-4-4-4-4-4-4-4-|

|------------------------------------------------------------------------|
|------------------------------------------------------------------------|
|------------------------------------------------------------------------|
|---10p9--9--9---9-x-9-x--9-10p9--9-9--9-7-------------------------------| x4
|---10p9--9--9---9-x-9-x--9-10p9--9-9--9-7-------------------------------|
|---10p9--9--9---9-x-9-x--9-10p9--9-9--9-7-------------------------------|

Bridge - "Inhale, exhale lets all hail"

|------------------------------------------------------------------------|
|------------------------------------------------------------------------|
|------------------------------------------------------------------------|
|------------------------------------------------------------------------|
|------------------------------------------------------------------------|
|---9-9-9-9-9-9-9-9---3v-------------------------------------------------|

Chorus

|------------------------------------------------------------------------|
|------------------------------------------------------------------------|
|------------------------------------------------------------------------|
|--9-9-9-9-9-9-9-9--12-12-12-12-5-5-5-5--4-4-4-4-4-4-4-4-4-4-4-4-4-4-4-4-| x4
|--9-9-9-9-9-9-9-9--12-12-12-12-5-5-5-5--4-4-4-4-4-4-4-4-4-4-4-4-4-4-4-4-|
|--9-9-9-9-9-9-9-9--12-12-12-12-5-5-5-5--4-4-4-4-4-4-4-4-4-4-4-4-4-4-4-4-|



9. Slutgarden

|------------------------------------------------------------------------|
|------------------------------------------------------------------------|
|------------------------------------------------------------------------|
|-----7------7----7--8-7---7-----7---------------------------------------|
|---3-5--3-3-5--3-5--6-5---5-3-3-5--8-5-8-10-----------------------------| x8
|-----------------------------------8-5-8-10-----------------------------|
|-----------------------------------8-5-8-10-----------------------------|
PM  - -  - - -  - -        - - - -  - - -

Pre-Chorus - "I can't believe, that you are for real"

volume swells
|------------------------------------------------------------------------|
|------------------------------------------------------------------------|
|------------------------------------------------------------------------|
|------------------------------------------------------------------------|
|---5v---8v---6v---5v----------------------------------------------------|
|------------------------------------------------------------------------|
|------------------------------------------------------------------------|

Chorus - "When I said 'we', you know I meant 'me'"

|------------------------------------------------------------------------|
|------------------------------------------------------------------------|
|------------------------------------------------------------------------|
|------------------------------------------------------------------------|
|---5--8-8-8-8--8-10--5-5-5-5-5-5-3-5------------------------------------| x4
|---5--8-8-8-8--8-10--5-5-5-5-5-5-3-5------------------------------------|
|---5--8-8-8-8--8-10--5-5-5-5-5-5-3-5------------------------------------|

Bridge - "I'm unsafe"

|------------------------------------------------------------------------|
|------------------------------------------------------------------------|
|------------------------------------------------------------------------|
|---6-6-6-6-6--7br-------------------------------------------------------|
|---6-6-6-6-6------------------------------------------------------------| x4
|---4-4-4-4-4------------------------------------------------------------|
|------------------------------------------------------------------------|

Verse

|------------------------------------------------------------------------|
|------------------------------------------------------------------------|
|------------------------------------------------------------------------|
|--------7------7------7------7------------------------------------------|
|---5--5---8--8---6--6---5--5--------------------------------------------| x2
|------------------------------------------------------------------------|
|------------------------------------------------------------------------|

|------------------------------------------------------------------------|
|------------------------------------------------------------------------|
|------------------------------------------------------------------------|
|-----7------7----7--8-7---7-----7---------------------------------------|
|---3-5--3-3-5--3-5--6-5---5-3-3-5--8-5-8-10-----------------------------| x4
|-----------------------------------8-5-8-10-----------------------------|
|-----------------------------------8-5-8-10-----------------------------|
PM  - -  - - -  - -        - - - -  - - -

Chorus

|------------------------------------------------------------------------|
|------------------------------------------------------------------------|
|------------------------------------------------------------------------|
|------------------------------------------------------------------------|
|---5--8-8-8-8--8-10--5-5-5-5-5-5-3-5------------------------------------| x4
|---5--8-8-8-8--8-10--5-5-5-5-5-5-3-5------------------------------------|
|---5--8-8-8-8--8-10--5-5-5-5-5-5-3-5------------------------------------|

Bridge - "I'm unsafe"

|------------------------------------------------------------------------|
|------------------------------------------------------------------------|
|------------------------------------------------------------------------|
|---6-6-6-6-6--7br-------------------------------------------------------|
|---6-6-6-6-6------------------------------------------------------------| x4
|---4-4-4-4-4------------------------------------------------------------|
|------------------------------------------------------------------------|

Verse

|------------------------------------------------------------------------|
|------------------------------------------------------------------------|
|------------------------------------------------------------------------|
|--------7------7------7------7------------------------------------------|
|---5--5---8--8---6--6---5--5--------------------------------------------| x2
|------------------------------------------------------------------------|
|------------------------------------------------------------------------|

Pre-Chorus

volume swells
|------------------------------------------------------------------------|
|------------------------------------------------------------------------|
|------------------------------------------------------------------------|
|------------------------------------------------------------------------|
|---5v---8v---6v---5v----------------------------------------------------|
|------------------------------------------------------------------------|
|------------------------------------------------------------------------|

|------------------------------------------------------------------------|
|---18br-----------------------------------------------------------------|
|---15br-----------------------------------------------------------------|
|------------------------------------------------------------------------|
|------------------------------------------------------------------------|
|------------------------------------------------------------------------|
|------------------------------------------------------------------------|

Chorus

|------------------------------------------------------------------------|
|------------------------------------------------------------------------|
|------------------------------------------------------------------------|
|------------------------------------------------------------------------|
|---5--8-8-8-8--8-10--5-5-5-5-5-5-3-5------------------------------------| x8
|---5--8-8-8-8--8-10--5-5-5-5-5-5-3-5------------------------------------|
|---5--8-8-8-8--8-10--5-5-5-5-5-5-3-5------------------------------------|

|------------------------------------------------------------------------|
|-----11---10------------------------11---10-----------------------------|
|---7----7-----7-10-7-10-7-10-12---7----7-----7-10-7-10-7--7v------------|
|------------------------------------------------------------------------|
|------------------------------------------------------------------------| x3
|------------------------------------------------------------------------|
|------------------------------------------------------------------------|


10.Spade

|------------------------------------------------------------------------------------|
|------------------------------------------------------------------------------------|
|---4-4---------4-4---------7-7---------6-6------------------------------------------|
|----------4-----------4-----------5-----------4-------------------------------------|
|--------5---5-------5---5-------7---7-------5---7-----------------------------------| x2
|------------------------------------------------------------------------------------|
|------------------------------------------------------------------------------------|

Verse

|------------------------------------------------------------------------------------|
|------------------------------------------------------------------------------------|
|------------------------------------------------------------------------------------|
|-----4--------4--------5--------4---------------------------------------------------|
|---5---5----5---5----7---7----5---7-------------------------------------------------| x4
|------------------------------------------------------------------------------------|
|------------------------------------------------------------------------------------|

|------------------------------------------------------------------------------------|
|------------------------------------------------------------------------------------|
|------------------------------------------------------------------------------------|
|------------------------------------------------------------------------------------|
|---2-2-2--2-2-2---2-2-2--2-2---2-2-2-2-2-2--2-2-2--2-2-2--2-2-2-2-2-2--2-2-2--2-2---|
|---2-2-2--2-2-2---2-2-2--2-2---2-2-2-2-2-2--2-2-2--2-2-2--2-2-2-2-2-2--2-2-2--2-2---|
|---2-2-2--2-2-2---2-2-2--2-2---2-2-2-2-2-2--2-2-2--2-2-2--2-2-2-2-2-2--2-2-2--2-2---|
PM  - - -  - - -   - - -  - -   - - - - - -  - - -  - - -  - - - - - -  - - -  - -

Chorus

|------------------------------------------------------------------------------------|
|------------------------------------------------------------------------------------|
|------------------------------------------------------------------------------------|
|------------------------------------------------------------------------------------|
|---2-2-2-2--5-5-5-5--7-7-7-7--5-5-5-5-----------------------------------------------| x4
|---2-2-2-2--5-5-5-5--7-7-7-7--5-5-5-5-----------------------------------------------|
|---2-2-2-2--5-5-5-5--7-7-7-7--5-5-5-5-----------------------------------------------|

Bridge

let ring B5 chord

|------------------------------------------------------------------------------------|
|------------------------------------------------------------------------------------|
|---4-4---------4-4---------7-7---------6-6------------------------------------------|
|----------4-----------4-----------5-----------4-------------------------------------|
|--------5---5-------5---5-------7---7-------5---7-----------------------------------| x2
|------------------------------------------------------------------------------------|
|------------------------------------------------------------------------------------|

|------------------------------------------------------------------------------------|
|------------------------------------------------------------------------------------|
|------------------------------------------------------------------------------------|
|------------------------------------------------------------------------------------|
|---2-2-2-2-2-2--2-2-2--2-2-2--2-2-2-2-2-2--2-2-2--2-2-------------------------------|
|---2-2-2-2-2-2--2-2-2--2-2-2--2-2-2-2-2-2--2-2-2--2-2-------------------------------|
|---2-2-2-2-2-2--2-2-2--2-2-2--2-2-2-2-2-2--2-2-2--2-2-------------------------------|
PM  - - - - - -  - - -  - - -  - - - - - -  - - -  - -

Verse

|------------------------------------------------------------------------------------|
|------------------------------------------------------------------------------------|
|------------------------------------------------------------------------------------|
|-----4--------4--------5--------4---------------------------------------------------|
|---5---5----5---5----7---7----5---7-------------------------------------------------| x4
|------------------------------------------------------------------------------------|
|------------------------------------------------------------------------------------|

|------------------------------------------------------------------------------------|
|------------------------------------------------------------------------------------|
|------------------------------------------------------------------------------------|
|------------------------------------------------------------------------------------|
|---2-2-2--2-2-2---2-2-2--2-2---2-2-2-2-2-2--2-2-2--2-2-2--2-2-2-2-2-2--2-2-2--2-2---|
|---2-2-2--2-2-2---2-2-2--2-2---2-2-2-2-2-2--2-2-2--2-2-2--2-2-2-2-2-2--2-2-2--2-2---|
|---2-2-2--2-2-2---2-2-2--2-2---2-2-2-2-2-2--2-2-2--2-2-2--2-2-2-2-2-2--2-2-2--2-2---|
PM  - - -  - - -   - - -  - -   - - - - - -  - - -  - - -  - - - - - -  - - -  - -

Chorus

|------------------------------------------------------------------------------------|
|------------------------------------------------------------------------------------|
|------------------------------------------------------------------------------------|
|------------------------------------------------------------------------------------|
|---2-2-2-2--5-5-5-5--7-7-7-7--5-5-5-5-----------------------------------------------| x4
|---2-2-2-2--5-5-5-5--7-7-7-7--5-5-5-5-----------------------------------------------|
|---2-2-2-2--5-5-5-5--7-7-7-7--5-5-5-5-----------------------------------------------|
PM  - - - -  - - - -  - - - -  - - - -

Bridge

|------------------------------------------------------------------------------------|
|------------------------------------------------------------------------------------|
|------------------------------------------------------------------------------------|
|---7/9\7/9--x-x-x--7/9\7/9\7/9/12---------------------------------------------------|
|---7/9\7/9--x-x-x--7/9\7/9\7/9/12---------------------------------------------------|
|---5/7\5\7--x-x-x--5/7\5/7\5/7/10---------------------------------------------------|
|------------------------------------------------------------------------------------|\
                                                                                       | x2
|------------------------------------------------------------------------------------|/
|------------------------------------------------------------------------------------|
|------------------------------------------------------------------------------------|
|---7/9\7/9--x-x-x--7/9\7/9\7/9------------------------------------------------------|
|---7/9\7/9--x-x-x--7/9\7/9\7/9-7----------------------------------------------------|
|---5/7\5\7--x-x-x--5/7\5/7\5/7-7----------------------------------------------------|
|-------------------------------7----------------------------------------------------|

Bridge

let ring B5 chord

|------------------------------------------------------------------------------------|
|------------------------------------------------------------------------------------|
|---4-4---------4-4---------7-7---------6-6------------------------------------------|
|----------4-----------4-----------5-----------4-------------------------------------|
|--------5---5-------5---5-------7---7-------5---7-----------------------------------| x2
|------------------------------------------------------------------------------------|
|------------------------------------------------------------------------------------|

|----------------------------------------------7h9/10\9p7-9br-(9)\7/9h10\9--22br-----|
|------------------------------------------------------------------------------------|
|--------------------------11br-(11)\9/11-\9-----------------------------------------|
|---9/11br-(11)\9--9h11/12-----------------------------------------------------------|
|------------------------------------------------------------------------------------|
|------------------------------------------------------------------------------------|
|------------------------------------------------------------------------------------|

|------------------------------------------------------------------------------------|
|------------------------------------------------------------------------------------|
|----------4--x----------4--x-----------4--x-----------4--x--------------------------|
|------------------------------------------------------------------------------------|
|---2-2-2----------5-5-5---------7-7-7----------5-5-5--------------------------------| x2
|------------------------------------------------------------------------------------|
|------------------------------------------------------------------------------------|

Chorus

Gtr. 1
|------------------------------------------------------------------------------------|
|------------------------------------------------------------------------------------|
|------------------------------------------------------------------------------------|
|------------------------------------------------------------------------------------|
|---2-2-2-2--5-5-5-5--7-7-7-7--5-5-5-5-----------------------------------------------| x4
|---2-2-2-2--5-5-5-5--7-7-7-7--5-5-5-5-----------------------------------------------|
|---2-2-2-2--5-5-5-5--7-7-7-7--5-5-5-5-----------------------------------------------|
PM  - - - -  - - - -  - - - -  - - - -

Gtr. 2
|------------------------------------------------------------------------------------|
|------------------------------------------------------------------------------------|
|----------4--x----------4--x-----------4--x-----------4--x--------------------------|
|------------------------------------------------------------------------------------|
|---2-2-2----------5-5-5---------7-7-7----------5-5-5--------------------------------| x2
|------------------------------------------------------------------------------------|
|------------------------------------------------------------------------------------|

Outro

|------------------------------------------------------------------------------------|
|------------------------------------------------------------------------------------|
|---------4--x-x---------------------------------------------------------------------|
|------4-----------------------------------------------------------------------------|
|---2--------------------------------------------------------------------------------| x12
|------------------------------------------------------------------------------------|
|------------------------------------------------------------------------------------|


11. Para-noir



Chorus
e----------------------------------------------------------
B----------------------------------------------------------
G-------7/9--9-9-9-9--7-7--------7/9--9-9-9-9--10-10-------
D--2-2--7/9--9-9-9-9--7-7---2-2--7/9--9-9-9-9--10-10-------
A--2-2--5/7--7-7-7-7--5-5---2-2--5/7--7-7-7-7---8--8-------
E--0-0----------------------0-0----------------------------

(continued; end on:)
e----------------------------------------------------------
B----------------------------------------------------------
G-------7/9--9-9-9-9--7-7---10-----------------------------
D--2-2--7/9--9-9-9-9--7-7---10-----------------------------
A--2-2--5/7--7-7-7-7--5-5----8-----------------------------
E--0-0-----------------------------------------------------


Bridge (with delay/echo)
e------------19----------------19--------------------------
B--21---20-----------21---20-------------------------------
G----------------------------------------------------------
D----------------------------------------------------------
A----------------------------------------------------------
E----------------------------------------------------------


Solo
e----------------------4-----------------------------------
B----------------------------------------------------------
G------------------------------------------------------x---
D-------------------------------------------------5----x---
A------------------<5>--------------------<5>--------------
E--0----/-5^--\-x------------/-5---\--x--------------------

(continued)
e--7-/12------------------------12\10----------10/-16-16---
B--------------------------------------12------------------
G----------------------------------------------------------
D----------------------------------------------------------
A-----------14.-14.-14.-14.-14-----------------------------
E----------------------------------------------------------

(continued)
e--16-16-16--\------------/-20^-20^-20^-20^-20^-20^--20----
B----------------------------------------------------------
G----------------------------------------------------------
D---------------------x------------------------------------
A----------------8----x------------------------------------
E----------------------------------------------------------

(continued)
e-----------------------------12^--12.-12.-12--------------
B--0.------------------------------------------------------
G------9---9---9`---9--------------------------------------
D-----------------------x-/--------------------x-/---------
A-----------------------x-/--------------------x-/---------
E----------------------------------------------------------

(continued)
e----------------------------------------------------------
B--13^--13^-13^-13^-13^-13^--13p11p9-----------------------
G--------------------------------------x---9^p7--9^--9^p7--
D--------------------------------------x-------------------
A----------------------------------------------------------
E----------------------------------------------------------

(continued)
e--12/14`-------12/15`---14p12p10-----12^`-----------------
B----------------------------------------------------------
G----------------------------------------------------------
D----------10----------------------x--------x--------------
A----------------------------------x--------x--------------
E----------------------------------------------/-5--5--5---



12. The bright young things

|----------------------------------------------------------------------------------|
|----------------------------------------------------------------------------------|
|----------------------------------------------------------------------------------|
|---0-2-3-0-0--0-2-3-0-0--6-6--0-2-3-0-0--0-2-3-0-0--6-6-6-6-----------------------| x2
|---0-2-3-0-0--0-2-3-0-0--6-6--0-2-3-0-0--0-2-3-0-0--6-6-6-6-----------------------|
|---0-2-3-0-0--0-2-3-0-0--6-6--0-2-3-0-0--0-2-3-0-0--6-6-6-6-----------------------|

Verse - (this riff a lot)

|----------------------------------------------------------------------------------|
|----------------------------------------------------------------------------------|
|----------------------------------------------------------------------------------|
|----------------------------------------------------------------------------------|
|---6-5-5-6-5-5-6-5----------------------------------------------------------------|
|----------------------------------------------------------------------------------|

Pre-Chorus - "good for nothing but being everything thats bad"

|----------------------------------------------------------------------------------|
|----------------------------------------------------------------------------------|
|----------------------------------------------------------------------------------|
|---0-2-3-0-0---0-2-3-0-0--6-6-6-6---0-2-3-0-0---6-6--0-2-3-0-0-0-2-3-0-0--6-6-6---|
|---0-2-3-0-0---0-2-3-0-0--6-6-6-6---0-2-3-0-0---6-6--0-2-3-0-0-0-2-3-0-0--6-6-6---|
|---0-2-3-0-0---0-2-3-0-0--6-6-6-6---0-2-3-0-0---6-6--0-2-3-0-0-0-2-3-0-0--6-6-6---|

Chorus

|----------------------------------------------------------------------------------|
|----------------------------------------------------------------------------------|
|---------------------5-5-5-5------------------------------------------------------|
|---0-0-0-0--3-3-3-3--5-5-5-5--3-6-6-6---------------------------------------------| x4
|---0-0-0-0--3-3-3-3--3-3-3-3--3-6-6-6---------------------------------------------|
|---0-0-0-0--3-3-3-3-----------3-6-6-6---------------------------------------------|

Bridge

|----------------------------------------------------------------------------------|
|----------------------------------------------------------------------------------|
|----------------------------------------------------------------------------------|
|---0-2-3-6---0-2-3-6--------------------------------------------------------------|
|---0-2-3-6---0-2-3-6--------------------------------------------------------------|
|---0-2-3-6---0-2-3-6--------------------------------------------------------------|

Verse

|----------------------------------------------------------------------------------|
|----------------------------------------------------------------------------------|
|----------------------------------------------------------------------------------|
|----------------------------------------------------------------------------------|
|---6-5-5-6-5-5-6-5----------------------------------------------------------------|
|----------------------------------------------------------------------------------|

Pre-Chorus

|----------------------------------------------------------------------------------|
|----------------------------------------------------------------------------------|
|----------------------------------------------------------------------------------|
|---0-2-3-0-0---0-2-3-0-0--6-6-6-6---0-2-3-0-0---6-6--0-2-3-0-0-0-2-3-0-0--6-6-6---|
|---0-2-3-0-0---0-2-3-0-0--6-6-6-6---0-2-3-0-0---6-6--0-2-3-0-0-0-2-3-0-0--6-6-6---|
|---0-2-3-0-0---0-2-3-0-0--6-6-6-6---0-2-3-0-0---6-6--0-2-3-0-0-0-2-3-0-0--6-6-6---|

Chorus

|----------------------------------------------------------------------------------|
|----------------------------------------------------------------------------------|
|---------------------5-5-5-5------------------------------------------------------|
|---0-0-0-0--3-3-3-3--5-5-5-5--3-6-6-6---------------------------------------------| x4
|---0-0-0-0--3-3-3-3--3-3-3-3--3-6-6-6---------------------------------------------|
|---0-0-0-0--3-3-3-3-----------3-6-6-6---------------------------------------------|

Bridge

|----------------------------------------------------------------------------------|
|----------------------------------------------------------------------------------|
|----------------------------------------------------------------------------------|
|---0-2-3-6---0-2-3-6--------------------------------------------------------------|
|---0-2-3-6---0-2-3-6--------------------------------------------------------------|
|---0-2-3-6---0-2-3-6--------------------------------------------------------------|

Middle Section

Gtr. 1
|---------16br---------------------------------------------------------------------|
|----------------------------------------------------------------------------------|
|---13br---------------------------------------------------------------------------|
|----------------------------------------------------------------------------------| x4
|----------------------------------------------------------------------------------|
|----------------------------------------------------------------------------------|

Gtr. 2
|----------------------------------------------------------------------------------|
|----------------------------------------------------------------------------------|
|----------------------------------------------------------------------------------|
|---0-2-3-0-0--0-2-3-0-0--6-6--0-2-3-0-0--0-2-3-0-0--6-6-6-6-----------------------| x2
|---0-2-3-0-0--0-2-3-0-0--6-6--0-2-3-0-0--0-2-3-0-0--6-6-6-6-----------------------|
|---0-2-3-0-0--0-2-3-0-0--6-6--0-2-3-0-0--0-2-3-0-0--6-6-6-6-----------------------|

Bridge - "Perpetual rebellion, with absolutely no cause"

|----------------------------------------------------------------------------------|
|----------------------------------------------------------------------------------|
|----------------------------------------------------------------------------------|
|---6--------6--------6--------0-2-3-0---------------------------------------------|
|---6--------6--------6--------0-2-3-0---------------------------------------------|
|---6--------6--------6--------0-2-3-0---------------------------------------------|

Chorus

|----------------------------------------------------------------------------------|
|----------------------------------------------------------------------------------|
|---------------------5-5-5-5------------------------------------------------------|
|---0-0-0-0--3-3-3-3--5-5-5-5--3-6-6-6---------------------------------------------| x8
|---0-0-0-0--3-3-3-3--3-3-3-3--3-6-6-6---------------------------------------------|
|---0-0-0-0--3-3-3-3-----------3-6-6-6---------------------------------------------|

Outro

|----------------------------------------------------------------------------------|
|----------------------------------------------------------------------------------|
|----------------------------------------------------------------------------------|
|---0-2-3-0-0---0-2-3-0-0--6-6-6-6---0-2-3-0-0---6-6--0-2-3-0-0-0-2-3-0-0--6-6-6---|
|---0-2-3-0-0---0-2-3-0-0--6-6-6-6---0-2-3-0-0---6-6--0-2-3-0-0-0-2-3-0-0--6-6-6---|
|---0-2-3-0-0---0-2-3-0-0--6-6-6-6---0-2-3-0-0---6-6--0-2-3-0-0-0-2-3-0-0--6-6-6---|




13. better of two evils

|----------------------------------------------------------------------------|
|----------------------------------------------------------------------------|
|----------------------------------------------------------------------------|
|---4-2-4-4--4-2-4-4--4-2-4-4--4-2-4-5---4-2-4-4--4-2-4-4--4-2-4-5-5-2-5-4---| x2
|---4-2-4-4--4-2-4-4--4-2-4-4--4-2-4-5---4-2-4-4--4-2-4-4--4-2-4-5-5-2-5-4---|
|---4-2-4-4--4-2-4-4--4-2-4-4--4-2-4-5---4-2-4-4--4-2-4-4--4-2-4-5-5-2-5-4---|

Bridge

|----------------------------------------------------------------------------|
|----------------------------------------------------------------------------|
|----------------------------------------------------------------------------|
|---5\4--5-5\4---5\4--5-5\4--------------------------------------------------| x2
|---x-x--x-x-x---x-x--x-x-x--------------------------------------------------|
|---5\4--5-5\4---5\4--5-5\4--------------------------------------------------|

Chorus - "haters call me bitch, call me faggot, call me whitey"

|----------------------------------------------------------------------------|
|----------------------------------------------------------------------------|
|----------------------------------------------------------------------------|
|---4-2-4-4--4-2-4-4--4-2-4-4--4-2-4-5---4-2-4-4--4-2-4-4--4-2-4-5-5-2-5-4---| x2
|---4-2-4-4--4-2-4-4--4-2-4-4--4-2-4-5---4-2-4-4--4-2-4-4--4-2-4-5-5-2-5-4---|
|---4-2-4-4--4-2-4-4--4-2-4-4--4-2-4-5---4-2-4-4--4-2-4-4--4-2-4-5-5-2-5-4---|

|----------------------------------------------------------------------------|
|----------------------------------------------------------------------------|
|----------------------------------------------------------------------------|
|---5\4--5-5\4---5\4--5-5\4--------------------------------------------------| x4
|---x-x--x-x-x---x-x--x-x-x--------------------------------------------------|
|---5\4--5-5\4---5\4--5-5\4--------------------------------------------------|

Bridge

|----------------------------------------------------------------------------|
|----------------------------------------------------------------------------|
|----------------------------------------------------------------------------|
|---5\4--5-5\4---5\4--5-5\4--------------------------------------------------| x2
|---x-x--x-x-x---x-x--x-x-x--------------------------------------------------|
|---5\4--5-5\4---5\4--5-5\4--------------------------------------------------|

Chorus

|----------------------------------------------------------------------------|
|----------------------------------------------------------------------------|
|----------------------------------------------------------------------------|
|---4-2-4-4--4-2-4-4--4-2-4-4--4-2-4-5---4-2-4-4--4-2-4-4--4-2-4-5-5-2-5-4---| x2
|---4-2-4-4--4-2-4-4--4-2-4-4--4-2-4-5---4-2-4-4--4-2-4-4--4-2-4-5-5-2-5-4---|
|---4-2-4-4--4-2-4-4--4-2-4-4--4-2-4-5---4-2-4-4--4-2-4-4--4-2-4-5-5-2-5-4---|

|----------------------------------------------------------------------------|
|----------------------------------------------------------------------------|
|----------------------------------------------------------------------------|
|---5\4--5-5\4---5\4--5-5\4--------------------------------------------------| x4
|---x-x--x-x-x---x-x--x-x-x--------------------------------------------------|
|---5\4--5-5\4---5\4--5-5\4--------------------------------------------------|

|----------------------------------------------------------------------------|
|----------------------------------------------------------------------------|
|------5-5-----5-5-----5-5-----5-5-5-5-5-5-----------------------------------|
|---4--5-5--4--5-5--4--5-5--4--5-5-5-5-5-5-----------------------------------| x4
|---4--3-3--4--3-3--4--3-3--4--3-3-3-3-3-3-----------------------------------|
|---4-------4-------4-------4------------------------------------------------|

Bridge

|----------------------------------------------------------------------------|
|----------------------------------------------------------------------------|
|----------------------------------------------------------------------------|
|---5\4--5-5\4---5\4--5-5\4--------------------------------------------------| x2
|---x-x--x-x-x---x-x--x-x-x--------------------------------------------------|
|---5\4--5-5\4---5\4--5-5\4--------------------------------------------------|

|----------------------------------------------------------------------------|
|----------------------------------------------------------------------------|
|----------------------------------------------------------------------------|
|---7v----4v-----------------------------------------------------------------|
|----------------------------------------------------------------------------|
|----------------------------------------------------------------------------|
  volume swells

Chorus

|----------------------------------------------------------------------------|
|----------------------------------------------------------------------------|
|----------------------------------------------------------------------------|
|---4-2-4-4--4-2-4-4--4-2-4-4--4-2-4-5---4-2-4-4--4-2-4-4--4-2-4-5-5-2-5-4---| x2
|---4-2-4-4--4-2-4-4--4-2-4-4--4-2-4-5---4-2-4-4--4-2-4-4--4-2-4-5-5-2-5-4---|
|---4-2-4-4--4-2-4-4--4-2-4-4--4-2-4-5---4-2-4-4--4-2-4-4--4-2-4-5-5-2-5-4---|

|----------------------------------------------------------------------------|
|----------------------------------------------------------------------------|
|----------------------------------------------------------------------------|
|---5\4--5-5\4---5\4--5-5\4--------------------------------------------------| x4
|---x-x--x-x-x---x-x--x-x-x--------------------------------------------------|
|---5\4--5-5\4---5\4--5-5\4--------------------------------------------------|



14. Vodevil

Strings i don't use are not  tabt

Pre-chorus: (When he goes "Kiss baby kiss")
G-------------------------------------9--7--9--7--9-7--------|
D--3-3-3-3-3-3-3-3-3-3-3-3-3-5-5-5-5--x--x--x--x--x-x--------|
A--3-3-3-3-3-3-3-3-3-3-3-3-3-5-5-5-5--7--5--7--5--7-5--------|
D--3-3-3-3-3-3-3-3-3-3-3-3-3-5-5-5-5--0--0--0--0--0-0--------|
Play that three times. The last time goes like this:

D--3-3-3-3-3-3-3-3-3-3-3-3-3-3-3-3-3--1-1-1-1-1-1-1-1-1-1----|
A--3-3-3-3-3-3-3-3-3-3-3-3-3-3-3-3-3--1-1-1-1-1-1-1-1-1-1----|
D--3-3-3-3-3-3-3-3-3-3-3-3-3-3-3-3-3--1-1-1-1-1-1-1-1-1-1----|

Chorus: (This isn't music...)

D--0-0-0-0----0-0-0-0----0-0-----0-3--0-3--0-5--0-5--0-6-|
A--0-0-0-0-5--0-0-0-0-5--0-0-5---0-3--0-3--0-5--0-5--0-6-|
D--0-0-0-0-0--0-0-0-0-0--0-0-0---0-3--0-3--0-5--0-5--0-6-|

Then you end on:
D--0-
A--0-
D--0-


Bridge: (That part when he sings "VIP ADD TRD violent shiny hate crime")

D--7-------------------7---------7--------7--------7---------

Outro:

D---11----------|
A---11----------|
D---11----------|



15. Obsequey

No guitar.


16. Tainted love


------------------------------------------------------------
------------------------------------------------------------
------------------------------------------------------------
-5-5------------5-5------------5-5------------3-3-----------
-5-5------------5-5------------5-5------------3-3-----------
-3-3------------3-3------------3-3------------5-5-----------
    Tainted Love   Tainted Love...........


 And here is the chorus 

 Chorus:
------------------------------------------------------------
------------------------------------------------------------
------------------------------------------------------------
-5-5-55-xx------5-5-55-xx------8-8-88-xx------8-8-88-xx-----
-5-5-55-xx------5-5-55-xx------8-8-88-xx------8-8-88-xx-----
-3-3-33-xx------3-3-33-xx------6-6-66-xx------6-6-66-xx-----


------------------------------------------------------------
------------------------------------------------------------
-8-8-88-xx------8-8-88-xx------5-5-55-xx------5-5-55-xx-----
-8-8-88-xx------8-8-88-xx------5-5-55-xx------5-5-55-xx-----
-6-6-66-xx------6-6-66-xx------3-3-33-xx------3-3-33-xx-----
------------------------------------------------------------


------------------------------------------------------------
------------------------------------------------------------
-5-5-55-xx------5-5-55-xx-----------------------------------
-5-5-55-xx------5-5-55-xx-----------------------------------
-3-3-33-xx------3-3-33-xx-----------------------------------
------------------------------------------------------------


Well this is it ;P  hope you like it.
Sounds great to me but...tell me.


Tap to rate this tab
 
# A B C D E F G H I J K L M N O P Q R S T U V W X Y Z