Song name
# A B C D E F G H I J K L M N O P Q R S T U V W X Y Z

Marilyn Manson - Longhard Road Out Of Hell tab

-------------------------------------------------------------------------------
		Long Hard Road Out Of Hell - Marilyn Manson
-------------------------------------------------------------------------------
Tabbed by:cosmicsoul07
Email:emperorconstantine2@hotmail.com

Tuning:Standard

This song was relatively easy to tab by ear and its really easy to play

Intro:
e|------------|--------------|------------|---------------|
B|------------|--------------|------------|---------------|
G|-0----------|-------------0|------------|------------0--|
D|-------8----|------8---3---|----8-------|-----8---3-----|
A|-7----------|--7-----------|--7---------|-7-------------|
E|------------|--------------|------------|---------------|


Bass Intro(Starts around 0:23)
G|---------------|---------------|---------------|---------------|
D|---------------|---------------|---------------|---------------|
A|---------------|---------------|---------------|---------------|
E|0-0-0-0-0-0-0-0|3-3-3-3-3-3-3-3|1-1-1-1-1-1-1-1|0-0-0-0-0-0-0-0|


Around (0:40) play this riff (acoustic)
e|----------------|----------------|---------------|-----------------|
B|----------------|----------------|---------------|-----------------|
G|----------------|----------------|---------------|-----------------|
D|-2-2-2-2-2-2-2-2|-5-5-5-5-5-5-5-5|3-3-3-3-3-3-3-3|-2-2-2-2-2-2-2-2-|x2
A|-2-2-2-2-2-2-2-2|-5-5-5-5-5-5-5-5|3-3-3-3-3-3-3-3|-2-2-2-2-2-2-2-2-|
E|-0-0-0-0-0-0-0-0|-3-3-3-3-3-3-3-3|1-1-1-1-1-1-1-1|-0-0-0-0-0-0-0-0-|


Then play something like the Intro riff near the end of the 1st verse

Chorus(Distortion):
e|----------------|----------------|---------------|-----------------|
B|----------------|----------------|---------------|-----------------|
G|----------------|----------------|---------------|-----------------|
D|-2-2-2-2-2-2-2-2|-5-5-5-5-5-5-5-5|3-3-3-3-3-3-3-3|-2-2-2-2-2-2-2-2-|x4
A|-2-2-2-2-2-2-2-2|-5-5-5-5-5-5-5-5|3-3-3-3-3-3-3-3|-2-2-2-2-2-2-2-2-|
E|-0-0-0-0-0-0-0-0|-3-3-3-3-3-3-3-3|1-1-1-1-1-1-1-1|-0-0-0-0-0-0-0-0-|


2nd verse is same as first only there's no acoustic riff

Chorus
e|----------------|----------------|---------------|-----------------|
B|----------------|----------------|---------------|-----------------|
G|----------------|----------------|---------------|-----------------|
D|-2-2-2-2-2-2-2-2|-5-5-5-5-5-5-5-5|3-3-3-3-3-3-3-3|-2-2-2-2-2-2-2-2-|x2
A|-2-2-2-2-2-2-2-2|-5-5-5-5-5-5-5-5|3-3-3-3-3-3-3-3|-2-2-2-2-2-2-2-2-|
E|-0-0-0-0-0-0-0-0|-3-3-3-3-3-3-3-3|1-1-1-1-1-1-1-1|-0-0-0-0-0-0-0-0-|

Then play intro riff:
e|------------|--------------|------------|---------------|
B|------------|--------------|------------|---------------|
G|-0----------|-------------0|------------|------------0--|
D|-------8----|------8---3---|----8-------|-----8---3-----|
A|-7----------|--7-----------|--7---------|-7-------------|
E|------------|--------------|------------|---------------|

Then Chorus again:
e|----------------|----------------|---------------|-----------------|
B|----------------|----------------|---------------|-----------------|
G|----------------|----------------|---------------|-----------------|
D|-2-2-2-2-2-2-2-2|-5-5-5-5-5-5-5-5|3-3-3-3-3-3-3-3|-2-2-2-2-2-2-2-2-|x4
A|-2-2-2-2-2-2-2-2|-5-5-5-5-5-5-5-5|3-3-3-3-3-3-3-3|-2-2-2-2-2-2-2-2-|
E|-0-0-0-0-0-0-0-0|-3-3-3-3-3-3-3-3|1-1-1-1-1-1-1-1|-0-0-0-0-0-0-0-0-|

Outro:
e|------------------------------------------------------------|
B|------------------------------------------------------------|
G|------------------------------------------------------------|
D|-2--5---2---9-------8---8-8-8-8--2---5---2---9----2---5---2-|
A|-2--5---2---9-------8---8-8-8-8--2---5---2---9----2---5---2-|
E|-0--3---0---7-------6---6-6-6-6--0---3---0---7----0---3---0-|
                        x x x x



| /  slide up
| \  slide down
| h  hammer-on
| p  pull-off
| ~  vibrato
| +  harmonic
| x  Mute note
===============================================================================
Tap to rate this tab
 
# A B C D E F G H I J K L M N O P Q R S T U V W X Y Z