Song name
# A B C D E F G H I J K L M N O P Q R S T U V W X Y Z

Marilyn Manson - Putting Holes In Happiness tab

e|----3p00--------------------------------------------------------------------------|
B|-3b5----3p00----0----0----0----0---------10s12-----12-15----12-15-----------------|
G|-------------2b4--2b4--2b4--2b4-5p2-----------14b16-----14b6----------------------|
D|----------------------------------------------------------------------------------|
A|----------------------------------------------------------------------------------|
E|----------------------------------------------------------------------------------|

e|----------------------------------------------------------------------------------|
B|------12-15-----12-15-----12------------------------------------------------------|
G|-14b16-----14b16-----14b16--14-12-----7h9p7-7--4h7p4-4----------------------------|
D|----------------------------------------------9---------7-7p5h7p5-5---------------|
A|------------------------------------------------------------------7---------------|
E|----------------------------------------------------------------------------------|

e|-------------------------------------7----12-----11-----10---7-7--7-7-------------|
B|------------------------------------10b12---10b12--10b12---10-10-10-8-------------|
G|------------------------------------------------------------------------9---------|
D|--5-------------------------------------------------------------------------------|
A|-7-7p5-7p5-5----------------------------------------------------------------------|
E|----------7--7p5-7p5-3-5p3s5-7-0--------------------------------------------------|

e|--------------------------7---12-----11-----10--------77777---------------------|
B|-------------------------10b12--10b12--10b12--10b12-88888-10~-10~-10~-10~-s17~--|
G|--------------------------------------------------------------------------------|
D|--------------------------------------------------------------------------------|
A|------5s7-5--------5s7----------------------------------------------------------|
E|-3h5p3-----7p5s3p0----0---------------------------------------------------------|

e|-------------------------------------------3h5p3-7h8p8--8p7-7-8p7-----------------|
B|--------------------------3h5p3-5-5h8p5---------------8----8------5b8r5-----------|
G|----------------------------------------------------------------------------------|
D|-----------------2h5p2-5----------------------------------------------------------|
A|---------2h5p2-5------------------------------------------------------------------|
E|-3h5p3-5--------------------------------------------------------------------------|

e|-------12-15p12------------12-15p12-----------------------------------------------|
B|-----12--------15-12-----12---------15-12----19---20---22-------------------------|
G|---12-------------------12----------------------16---17----19-21b-----------------|
D|-14-------------------14----------------------------------------------------------|
A|----------------------------------------------------------------------------------|
E|----------------------------------------------------------------------------------|


e|----------------------------------------------------------------------------------|
B|---12-----------------------------------------------------------------------------|
G|-9---12-9~--0h4p0-----------------------------------------------------------------|
D|-------------------2~---------9-10s1212s11-11-12~-12s14s11------------------------|
A|-----------------------10-12------------------------------------------------------|
E|--------------------s12-----------------------------------------------------------|

e|-----------12--14--15--17----22b~----------|
B|--------12---12--12--12--12----------------|
G|-----12------------------------------------|
D|-14----------------------------------------|
A|-------------------------------------------|
E|-------------------------------------------|
Tap to rate this tab
# A B C D E F G H I J K L M N O P Q R S T U V W X Y Z