Song name
# A B C D E F G H I J K L M N O P Q R S T U V W X Y Z

Marilyn Manson - Red Carpet Grave tab

The Red Carpet Grave
Eat Me, Drink Me
Marilyn Manson

Verse
(Delay)
"They call her bulldozer speech demon..."
e-------------------------------|
B-----------------9/12--12/10---|
G-----------------9/12--12/10---|
D--7-7-7--7p5h7p5---------------|
A--7-7-7--7p5h7p5---------------|
E-------------------------------|


Chorus
"There's the ones that you love..."
e|-----------------------|
B|-----------------------|
G|--------------9---9----|
D|--7---9---10--7---7----|
A|--7---9---10-----------|
E|--5---7---8------------|


Solo
e|----------------------------------------------------|
B|-------8-10-10-8---8--------------------------------|
G|---7b9-----------9---9-7-9-7-5-7p5-5-7p5-7p5-0-2vb--|
D|----------------------------------------------------|
A|----------------------------------------------------|
E|----------------------------------------------------|

e|--------8-10p8-----10^^-10-8-------------13-15p13-----15p13------15/17---|
B|---8-10--------10-------------8-10---15^-----------15--------15----------|
G|-------------------------------------------------------------------------|
D|-------------------------------------------------------------------------|
A|-------------------------------------------------------------------------|
E|-------------------------------------------------------------------------|

e|--15--15------13--13-----12--12------10--10--------------------------------|
B|--15-----15---13-----13--12-----13---12------10\0--------------------------|
G|---------------------------------------------------------------------------|
D|---------------------------------------------------------------------------|
A|---------------------------------------------------------------------------|
E|---------------------------------------------------------------------------|
Tap to rate this tab
# A B C D E F G H I J K L M N O P Q R S T U V W X Y Z