Song name
# A B C D E F G H I J K L M N O P Q R S T U V W X Y Z

Marilyn Manson - They Said That Hells Not Hot tab

THEY SAID THAT HELLīS NOT HOT
				

		  Iīm not sure about this (it sounds well if you pick as you slide down the string)
							  |
Intro (0:00 - 0:35)					 
|-------------------------------|    	
e|----------------------------------------7h8-7-6-5-5-4-4-3-3-2-2-1-1-0-0----|  
B|---------------------------------------------------------------------------|
G|--2-2-2-5-5-5---------------2-2-5-5----------------------------------------|
D|--2-2-2-5-5-5-2-2-2-5-5-5-5-2-2-5-5-2-2------------------------------------|
A|--0-0-0-3-3-3-2-2-2-5-5-5-5-0-0-3-3-2-2------------------------------------|
E|--------------0-0-0-3-3-3-3---------0-0------------------------------------|
					       	
e|-----------------------------------------------|
B|-----------------------------------------------|
G|--2-2-2-5-5-5---------------2-2-5-5------------|
D|--2-2-2-5-5-5-2-2-2-5-5-5-5-2-2-5-5-2-2-5-5----| x2
A|--0-0-0-3-3-3-2-2-2-5-5-5-5-0-0-3-3-2-2-5-5----|
E|--------------0-0-0-3-3-3-3---------0-0-3-3----|


Verse 1 (0:35 - 0:57)
    Am		    C           Dm	      Am          Am	      G	     	  Em		F	C
e|--------0---------------0-----------1-0-----------0-----------0-----------3-------------0------------------------|
B|------1---1-----------1---1-------3-----3-------1---1-------1---1-----------3-------------0-----------------1----|
G|------------2---------------0---2---------2-----------2-----------2-----0-------------0-----0-------2-----0------|
D|----2---------------2---------0---------------2-----------2-------------------0-----2-------------3-----2--------|
A|--0-----------0-2-3-------------------------0-----------0-------------2-----------2-------------3-----3----------|
E|--------------------------------------------------------------------3-----------0-------------1------------------|


Chorus 1 (0:57 - 1:30)
e|-------------------------------------|
B|-------------------------------------|
G|--2-2-2-2---------5-5-5-5------------|
D|--2-2-2-2-3-3-3-3-5-5-5-5-5-5-5-5----| x2
A|--0-0-0-0-3-3-3-3-3-3-3-3-5-5-5-5----|
E|----------1-1-1-1---------3-3-3-3----|

e|-----------------------------------------------|
B|-----------------------------------------------|
G|--2-2-2-5-5-5---------------2-2-5-5------------|
D|--2-2-2-5-5-5-2-2-2-5-5-5-5-2-2-5-5-2-2-5-5----|
A|--0-0-0-3-3-3-2-2-2-5-5-5-5-0-0-3-3-2-2-5-5----|
E|--------------0-0-0-3-3-3-3---------0-0-3-3----|


Verse 2 (1:30 - 1:53)
    Am		    C           Dm	      Am          Am	      G	     	  Em		F	C
e|--------0---------------0-----------1-0-----------0-----------0-----------3-------------0------------------------|
B|------1---1-----------1---1-------3-----3-------1---1-------1---1-----------3-------------0-----------------1----|
G|------------2---------------0---2---------2-----------2-----------2-----0-------------0-----0-------2-----0------|
D|----2---------------2---------0---------------2-----------2-------------------0-----2-------------3-----2--------|
A|--0-----------0-2-3-------------------------0-----------0-------------2-----------2-------------3-----3----------|
E|--------------------------------------------------------------------3-----------0-------------1------------------|


Chorus 2 (1:53 - 2:14)
e|-------------------------------------|
B|-------------------------------------|
G|--2-2-2-2---------5-5-5-5------------|
D|--2-2-2-2-3-3-3-3-5-5-5-5-5-5-5-5----| x2
A|--0-0-0-0-3-3-3-3-3-3-3-3-5-5-5-5----|
E|----------1-1-1-1---------3-3-3-3----|


Solo (2:14 - 2:36)
Sorry, but this solo is too difficult to me!!


Bridge (2:36 - 2:59)
e|-------------------|	  	         e|-------------------|	
B|-------------------|	  	         B|-------------------|
G|-------------------|	  	         G|--2---5-------7----|
D|-------------------| x2	or	 D|--2---5---5---7----|	x2
A|--0---3-------5----|	  	         A|--0---3---5---5----|
E|----------3--------|	  	         E|----------3--------| 


Chorus 3 (2:59 - 4:07) 
e|-------------------------------------|
B|-------------------------------------|
G|--2-2-2-2---------5-5-5-5------------|
D|--2-2-2-2-3-3-3-3-5-5-5-5-5-5-5-5----|
A|--0-0-0-0-3-3-3-3-3-3-3-3-5-5-5-5----|
E|----------1-1-1-1---------3-3-3-3----|
 x4 (On 3rd and 4th time there is another guitar playing, but i didnīt figure it out)

e|-----------------------------------------------|
B|-----------------------------------------------|
G|--2-2-2-5-5-5---------------2-2-5-5------------|
D|--2-2-2-5-5-5-2-2-2-5-5-5-5-2-2-5-5-2-2-5-5----|
A|--0-0-0-3-3-3-2-2-2-5-5-5-5-0-0-3-3-2-2-5-5----|
E|--------------0-0-0-3-3-3-3---------0-0-3-3----|

e|-----------------------------------------|
B|-----------------------------------------|
G|--2-2-2-5-5-5---------------2-2-5-5------|
D|--2-2-2-5-5-5-2-2-2-5-5-5-5-2-2-5-5-2----|
A|--0-0-0-3-3-3-2-2-2-5-5-5-5-0-0-3-3-2----|
E|--------------0-0-0-3-3-3-3---------0----|



Lyrics:


I kill myself in small amounts,  |
In each relationship it's not    |
About love.                      | Verse 1
Just another funeral and         | 
Just another girl left in tears. |


And I'm waiting                  |
With the sound turned off        |
I'm waiting                      |
Like a glass balloon             |
And I'm fading                   | Chorus 1
Into the void and then           |
I'm gone, I'm gone, I'm gone...  |
They said that hell's not hot    |
They said that hell's not hot    |


I gave my soul to someone else,  |
She must have known that         |
It was already sold.             | Verse 2
It was never about her,          |
It was about the hurt.           |


So I'm waiting                   |
With the sound turned off        |
I'm waiting                      |
Like a glass balloon             | Chorus 2
And I'm fading                   |
Into the void and then           |
I'm gone, I'm gone, I'm gone...  |


I kill myself in small amounts,  |
In each relationship it's not    |
About love.                      | Bridge
Just another funeral and         |
Just another girl left in tears. |


Waiting                          |
With the sound turned off        |
I'm waiting                      |
Like a glass balloon             |
And I'm fading                   |
Into the void and then           |
I'm gone, I'm gone, I'm gone...  |
Waiting...                       | Chorus 3
Waiting...                       |
Fading...                        |
I'm gone, I'm gone, I'm gone...  |
They said that hell's not hot    |
They said that hell's not hot    |
They said that hell's not hot    |
They said that hell's not hot    |




By 6M6M6
Tap to rate this tab
 
# A B C D E F G H I J K L M N O P Q R S T U V W X Y Z