Song name
# A B C D E F G H I J K L M N O P Q R S T U V W X Y Z

Marilyn Manson - Are You The Rabbit tab

----------------------------------------------------------------------------
                     Are You The Rabbit? - Marilyn Manson
----------------------------------------------------------------------------

^ = Bend
\ = Slide Down
. = Palm Muting

Intro
e|---------------------------------------------------|
B|---------------------------------------------------|
G|---------------------------------------------------|
D|---------------------------------------------------|
A|--10^---7-5-7-5-7-5\-------------------------------|
D|---------------------------------------------------|


Intro(continued)
e|---------------------------------------------------|
B|---------------------------------------------------|
G|---------------------------------------------------| (2x)
D|---------------------------------------------------|
A|------------------2~--2-5-2~-----------------------|
D|--8-8-8-8-7-7-5-5-2~--2-5-2~-----------------------| 
         
Pre-Verse/Chorus                                            
e|---------------------------------------------------|
B|---------------------------------------------------|
G|--7-9-7-9-7-9--------------------------------------| (4x)
D|--7-9-7-9-7-9-2-5-2--0-2-0-2-5-5-------------------|
A|--5-7-5-7-5-7-2-5-2--0-2-0-2-5-5-------------------|
D|--------------2-5-2--0-2-0-2-5-5-------------------| 


Break
e|---------------------------------------------------|
B|---------------------------------------------------|
G|---------------------------------------------------|
D|--7-7-7-7-7-7-7-7-7-7-7-7-7-5-5-5-5-5-5-5-5-5-5-5--|
A|--7-7-7-7-7-7-7-7-7-7-7-7-7-5-5-5-5-5-5-5-5-5-5-5--|
D|--7-7-7-7-7-7-7-7-7-7-7-7-7-5-5-5-5-5-5-5-5-5-5-5--| 

Break(continued)
e|-------------------------------------------------------------------|
B|-------------------------------------------------------------------|
G|-------------------------------------------------------------------|
D|--8-8-8-8-8-8-8-8-8-8-8-8-8-10-10-10-10-10-10-10-10-10-10-10-10-10-|
A|--8-8-8-8-8-8-8-8-8-8-8-8-8-10-10-10-10-10-10-10-10-10-10-10-10-10-|
D|--8-8-8-8-8-8-8-8-8-8-8-8-8-10-10-10-10-10-10-10-10-10-10-10-10-10-| 


Before Solo
e|----------------------------------------------------|
B|--------------8^------------------------------------|
G|--7-9-7-9-7-9---------------------------------------|
D|----------------------------------------------------|
A|----------------------------------------------------|
D|----------------------------------------------------|
    . . . . . .

I haven't figured out the solo yet... sorry!
Tap to rate this tab
 
# A B C D E F G H I J K L M N O P Q R S T U V W X Y Z