Song name
# A B C D E F G H I J K L M N O P Q R S T U V W X Y Z

Marina And The Diamonds - Primadonna tab

I've tabbed the vocals of Primadonna for guitar.
Tabbed by LewHallAM505/Lewis Hall.
------------------------------------------------------------------
Chorus

|-7-5-5-3-3s5--------|
|--------------3s5---|
|--------------------|
|--------------------|
|--------------------|
|--------------------|
Primadonna girl, yeah

|-7-5-5-3-7-7-5-5-3---|
|---------------------|
|---------------------|
|---------------------|
|---------------------|
|---------------------|
All I ever wanted was the world

|-3-7-5-5-3-3s5--7-----|
|------------------3---|
|----------------------|
|----------------------|
|----------------------|
|----------------------|
I can't help that I need it all

|-3-7-5-5-3-7-7-5-5-3---|
|-----------------------|
|-----------------------|
|-----------------------|
|-----------------------|
|-----------------------|
The Primadonna life the rise and fall

|-3-5-7-10-8-7-5-3-2---|
|----------------------|
|----------------------|
|----------------------|
|----------------------|
|----------------------|
You say that I'm kinda difficult

|-1-3-5-8-6-5-3-1-0---|
|---------------------|
|---------------------|
|---------------------|
|---------------------|
|---------------------|
But it's always someone else's fault

|-3-5-7-10-8-7-5-3-2---|
|----------------------|
|----------------------|
|----------------------|
|----------------------|
|----------------------|
But you're wrapped around my finger, Babe

|-1-3-5-8-6-5-3-1-0---|
|---------------------|
|---------------------|
|---------------------|
|---------------------|
|---------------------|
You can count on me to misbehave

|-7-5-5-3-3s5~--|
|---------------|
|---------------|
|---------------|
|---------------|
|---------------|
Primadonna Girl
------------------------------------------------------------------
Verses

|----------------------|
|----------------------|
|----------------------|
|-12-12-12-----5-------|
|----------5-7---7-7---|
|----------------------|
Would you do anything for me?

|------------------------|
|------------------------|
|------------------------|
|------------------------|
|------------------------|
|-10-10-10-7-10-12-7-7---|
Buy a big diamond ring for me?

|-------------------------|
|-------------------------|
|-------------------------|
|-----------------5-------|
|-12-12-12-12-5-7---------|
|-------------------7-7---|
Would you get down on your knees for me?

|--------------------------|
|--------------------------|
|--------------------------|
|--------------------------|
|--------------------------|
|-10-10-8-8-6-2-10-8-6-2---|
Pop that pretty question right now Baby

|------------------------|
|------------------------|
|------------------------|
|--------------5---------|
|-12-12-12-5-7-----------|
|----------------10-10---|
Beauty Queen on a Silverscreen

|-----------------------|
|-----------------------|
|-----------------------|
|-----------------------|
|-----------------------|
|-10-10-7-7-10-12-7-7---|
Livin' life like I'm in a dream

|------------------------|
|------------------------|
|------------------------|
|--------------5---------|
|-12-12-12-5-7-----------|
|----------------10-10---|
I know I've got a big ego

|---------------------------------|
|---------------------------------|
|---------------------------------|
|---------------------------------|
|---------------------------------|
|-3-12-12-10-8-4-4-12-12-10-8-5---|
I really don't know it's such a big deal though

|---------------------|
|---------------------|
|----9--9-11----------|
|---------------------|
|-12---------11-9-9---|
|---------------------|
I'm sad to the core, core, core

|-----------------------|
|-----------------------|
|-------9-9-11----------|
|-------------------9---|
|-12-12--------11-9-----|
|-----------------------|
Every day is a chore, chore, chore

|-----------------------|
|-----------------------|
|-------9-9-11------9---|
|-----------------------|
|-12-12--------11-9-----|
|-----------------------|
When you give I want more, more, more

|---------------------------|
|---------------------------|
|----------7-9--------------|
|--------------7------------|
|-12-12-12------------------|
|----------------12-12-12---|
I wanna to be adored, 'Cus I'm a...(Chorus)

The verse is the same after the 2nd chorus.
The verse was difficult to tab, it might not be perfect, but it's the best I can do. The 
Chorus should be 100% accurate.

Enjoy, please rate this tab if you enjoyed playing it.
Tap to rate this tab
# A B C D E F G H I J K L M N O P Q R S T U V W X Y Z