Song name
# A B C D E F G H I J K L M N O P Q R S T U V W X Y Z

Marina And The Diamonds - How To Be A Heartbreaker tab

Marina & The Diamonds
'How To Be A Heartbreaker'
Tabbed by Hailey H.

The strumming pattern for the whole song is up, down, up, down, etc.

Intro

e|------------------------------|
B|-3-3--------------------------|
G|-4-4--2/4-4--4-4-4--4/6-6--6--|  x6
D|------4/5-5--5-5-5--5/7-7--7--|
A|------------------------------|
E|------------------------------|

Verse

e|--------3-3--3-3-3------------|
B|-3-3----0-0--0-0-0----2-2--2--|
G|-4-4----0-0--0-0-0----2-2--2--|  x4
D|-x-x----0-0--0-0-0----2-2--2--|
A|-2-2----2-2--2-2-2----0-0--0--|
E|------2-3-3--3-3-3--2---------|

Chorus

e|--------3-3--3-3-3------------|
B|-3-3----0-0--0-0-0----2-2--2--|
G|-4-4----0-0--0-0-0----2-2--2--|  x3
D|-x-x----0-0--0-0-0----2-2--2--|
A|-2-2----2-2--2-2-2----0-0--0--|
E|------2-3-3--3-3-3--2---------|

e|---------------------------|
B|---------------------------|
G|---------------------------|  
D|---------------------------|
A|-2-2--2-2-2--2-2-2--2-2-2--|
E|-2-2--2-2-2--2-2-2--2-2-2--|

e|--------3-3--3-3-3------------|
B|-3-3----0-0--0-0-0----2-2--2--|
G|-4-4----0-0--0-0-0----2-2--2--|  x3
D|-x-x----0-0--0-0-0----2-2--2--|
A|-2-2----2-2--2-2-2----0-0--0--|
E|------2-3-3--3-3-3--2---------|

e|------------------|
B|------------------|
G|------------------|  
D|------------------|
A|-2-2--2-2-2--2-2--|
E|-2-2--2-2-2--2-2--|

e|--------3-3--3-3-3------------|
B|-3-3----0-0--0-0-0----2-2--2--|
G|-4-4----0-0--0-0-0----2-2--2--|  x3
D|-x-x----0-0--0-0-0----2-2--2--|
A|-2-2----2-2--2-2-2----0-0--0--|
E|------2-3-3--3-3-3--2---------|

e|-------------------|
B|-------------------|
G|-------------------|  
D|-------------------|
A|-2-2--2-2-2--2-2-2-|
E|-2-2--2-2-2--2-2-2-|

Verse 2

e|--------3-3--3-3-3------------|
B|-3-3----0-0--0-0-0----2-2--2--|
G|-4-4----0-0--0-0-0----2-2--2--|  x3
D|-x-x----0-0--0-0-0----2-2--2--|
A|-2-2----2-2--2-2-2----0-0--0--|
E|------2-3-3--3-3-3--2---------|

e|--------3-3--3-3-3--3--|
B|-3-3----0-0--0-0-0--0--|
G|-4-4----0-0--0-0-0--0--|
D|-x-x----0-0--0-0-0--0--|
A|-2-2----2-2--2-2-2--2--|
E|------2-3-3--3-3-3--3--|

e|--------3-3--3-3-3------------|
B|-3-3----0-0--0-0-0----2-2--2--|
G|-4-4----0-0--0-0-0----2-2--2--|  x3
D|-x-x----0-0--0-0-0----2-2--2--|
A|-2-2----2-2--2-2-2----0-0--0--|
E|------2-3-3--3-3-3--2---------|

e|--------3-3--3-3-3--3-3-3--|
B|-3-3----0-0--0-0-0--0-0-0--|
G|-4-4----0-0--0-0-0--0-0-0--|
D|-x-x----0-0--0-0-0--0-0-0--|
A|-2-2----2-2--2-2-2--2-2-2--|
E|------2-3-3--3-3-3--3-3-3--|

Chorus

e|--------3-3--3-3-3------------|
B|-3-3----0-0--0-0-0----2-2--2--|
G|-4-4----0-0--0-0-0----2-2--2--|  x3
D|-x-x----0-0--0-0-0----2-2--2--|
A|-2-2----2-2--2-2-2----0-0--0--|
E|------2-3-3--3-3-3--2---------|

e|---------------------------|
B|---------------------------|
G|---------------------------|  
D|---------------------------|
A|-2-2--2-2-2--2-2-2--2-2-2--|
E|-2-2--2-2-2--2-2-2--2-2-2--|

e|--------3-3--3-3-3------------|
B|-3-3----0-0--0-0-0----2-2--2--|
G|-4-4----0-0--0-0-0----2-2--2--|  x3
D|-x-x----0-0--0-0-0----2-2--2--|
A|-2-2----2-2--2-2-2----0-0--0--|
E|------2-3-3--3-3-3--2---------|

e|------------------|
B|------------------|
G|------------------|  
D|------------------|
A|-2-2--2-2-2--2-2--|
E|-2-2--2-2-2--2-2--|

e|--------3-3--3-3-3------------|
B|-3-3----0-0--0-0-0----2-2--2--|
G|-4-4----0-0--0-0-0----2-2--2--|  x3
D|-x-x----0-0--0-0-0----2-2--2--|
A|-2-2----2-2--2-2-2----0-0--0--|
E|------2-3-3--3-3-3--2---------|

e|------------------|
B|------------------|
G|------------------|  
D|------------------|
A|-2-2--2-2-2--2-2--|
E|-2-2--2-2-2--2-2--|

Bridge

e|-3----------------------------2--------|
B|-0---------2--------3---------3--------|
G|-0--(x12)--2--(x4)--4--(x12)--2--(x4)--|  x4
D|-0---------2--------x------------------|
A|-2------------------2------------------|
E|-3-------------------------------------|

e|--------3-3--3-3-3------------|
B|-3-3----0-0--0-0-0----2-2--2--|
G|-4-4----0-0--0-0-0----2-2--2--|  
D|-x-x----0-0--0-0-0----2-2--2--|
A|-2-2----2-2--2-2-2----0-0--0--|
E|------2-3-3--3-3-3--2---------|

e|--------3-3-3-3--|
B|-3-3----0-0-0-0--|
G|-4-4----0-0-0-0--|  
D|-x-x----0-0-0-0--|
A|-2-2----2-2-2-2--|
E|------2-3-3-3-3--|

Chorus

e|--------3-3--3-3-3------------|
B|-3-3----0-0--0-0-0----2-2--2--|
G|-4-4----0-0--0-0-0----2-2--2--|  x3
D|-x-x----0-0--0-0-0----2-2--2--|
A|-2-2----2-2--2-2-2----0-0--0--|
E|------2-3-3--3-3-3--2---------|

e|---------------------------|
B|---------------------------|
G|---------------------------|  
D|---------------------------|
A|-2-2--2-2-2--2-2-2--2-2-2--|
E|-2-2--2-2-2--2-2-2--2-2-2--|

e|--------3-3--3-3-3------------|
B|-3-3----0-0--0-0-0----2-2--2--|
G|-4-4----0-0--0-0-0----2-2--2--|  x3
D|-x-x----0-0--0-0-0----2-2--2--|
A|-2-2----2-2--2-2-2----0-0--0--|
E|------2-3-3--3-3-3--2---------|

e|-------------------------|
B|-------------------------|
G|-------------------------|  
D|-------------------------|
A|-2-2--2-2-2--2-2-2--2-2-2|
E|-2-2--2-2-2--2-2-2--2-2-2|

e|--------3-3--3-3-3------------|
B|-3-3----0-0--0-0-0----2-2--2--|
G|-4-4----0-0--0-0-0----2-2--2--|  x3
D|-x-x----0-0--0-0-0----2-2--2--|
A|-2-2----2-2--2-2-2----0-0--0--|
E|------2-3-3--3-3-3--2---------|

e|------------------|
B|------------------|
G|------------------|  
D|------------------|
A|-2-2--2-2-2--2-2--|
E|-2-2--2-2-2--2-2--|
Tap to rate this tab
# A B C D E F G H I J K L M N O P Q R S T U V W X Y Z