Song name
# A B C D E F G H I J K L M N O P Q R S T U V W X Y Z

Marina And The Diamonds - Primadonna tab

(/) Slide Up  (\) Slide Down  (h) Hammer On  (p) Pull Off  (b) Bend
(r) Release (v) Vibrato

INTRO

E|---------------------------------------------------------------------|
B|--12--10--10-------------12------12--10--10------12--12--10--10------|
G|--------------12--12/14----------------------12------------------12--|
D|-----------------------------12--------------------------------------|
A|---------------------------------------------------------------------|
E|---------------------------------------------------------------------|



E|-----------------------------------------------------------------------|
B|--12--10--10-------------12------12--10--10------12--12--10--10--------|
G|--------------12--12/14----------------------12------------------12\9--|
D|-----------------------------12----------------------------------------|
A|-----------------------------------------------------------------------|
E|-----------------------------------------------------------------------|

x2

E|--------------10---------------------------------------------------------|
B|------10--12------13--12--10------------------10--13--12--10-------------|
G|--12--------------------------12--11--11--12------------------12--11--9--|
D|-------------------------------------------------------------------------|
A|-------------------------------------------------------------------------|
E|-------------------------------------------------------------------------|
Tap to rate this tab
 
# A B C D E F G H I J K L M N O P Q R S T U V W X Y Z