Song name
# A B C D E F G H I J K L M N O P Q R S T U V W X Y Z

Marina And The Diamonds - How To Be A Heartbreaker tab

-----------------------------------------------------------------------------
             How To Be A Heartbreaker - Marina And The Diamonds
-----------------------------------------------------------------------------

Tabbed by: xenonzprod (Andy)
E-mail: xenoxzproductions@gmail.com

GUITAR

INTRO
e---------------------------------------------------------------|
b--3------------------------------------------------------------|
g--4--2--4--6---------------------------------------------------|
d-----4--5--7---(X2)--------------------------------------------|
a---------------------------------------------------------------|
e---------------------------------------------------------------|

        
VERSES
e---------------------------------------------------------------|
b---------------------------------------------------------------|
g--------4-4-------------0-0-----------4-4-4--------------------|
d--------4-4--5-5--2-2---2-2--(X8)-----4-4-4--(X4)--------------|
a--------2-2--5-5--2-2---2-2-----------2-2-2--------------------|
e-------------3-3--0-0------------------------------------------|


CHORUS

1ST TIME
e---------------------------------------------------------------|
b---------------------------------------------------------------|
g--------4-4------------0-0--------4-4-4----------------0-0-----|
d--------4-4--5-5--2-2--2-2--(X3)--4-4-4--5-5-5--2-2-2--2-2-----|
a--------2-2--5-5--2-2--2-2--------2-2-2--5-5-5--2-2-2--2-2-----|
e-------------3-3--0-0--------------------3-3-3--0-0-0----------|

        
2ND TIME
e---------------------------------------------------------------|
b---------------------------------------------------------------|
g--------4-4------------0-0--------4-4-4------------------------|
d--------4-4--5-5--2-2--2-2--(X3)--4-4-4--5-5-5--2--------------|
a--------2-2--5-5--2-2--2-2--------2-2-2--5-5-5--2--------------|
e-------------3-3--0-0--------------------3-3-3--0--------------|       


OOOOOOOOOOOOOOOOOOOOOUUU BIT
e---------------------------------------------------------------|
b---------------------------------------------------------------|
g--------4-4------------0-0--------4-4-4------------------------|
d--------4-4--5-5--2-2--2-2--(X3)--4-4-4--5-5-5--2-2------------|
a--------2-2--5-5--2-2--2-2--------2-2-2--5-5-5--2-2------------|
e-------------3-3--0-0--------------------3-3-3--0-0------------|


BRIDGE
e---------------------------------------------------------------|
b---------------------------------------------------------------|
g------------2---4------------2---4---7----------2---4----------|
d--------5---2---4--(X2)--5---2---4---7------5---2---4----------|
a--------5---0---2--------5---0---2---5------5---0---2----------|
e--------3----------------3------------------3------------------|


VOCALS

VERSE 1

Rule number one, is that you gotta have fun,
e---------------------------------------------------------------|
b---7-5-3-5/7-----77-55-3---------------------------------------|
g-------------------------4-------------------------------------|
d---------------------------------------------------------------|
a---------------------------------------------------------------|
e---------------------------------------------------------------|


But baby when you're done, you gotta be the first to run
e---------------------------------------------------------------|
b-----7-7-7-5-3-5/7---------------------------------------------|
g---------------------777-6-7-6-4-------------------------------|
d---------------------------------------------------------------|
a---------------------------------------------------------------|
e---------------------------------------------------------------|


Rule number two, just don't get attached to, 
e---------------------------------------------------------------|
b--7-5-3-5/7-----7-7-5--3--5-5/7--------------------------------|
g---------------------------------------------------------------|
d---------------------------------------------------------------|
a---------------------------------------------------------------|
e---------------------------------------------------------------|


Somebody you could lose
e---------------------------------------------------------------|
b---------------------------------------------------------------|
g---------77-6-7-6-4--------------------------------------------|
d---------------------------------------------------------------|
a---------------------------------------------------------------|
e---------------------------------------------------------------|


So le-let me tell you
e---------------------------------------------------------------|
b---------------------------------------------------------------|
g-------777-6-7-6-4---------------------------------------------|
d---------------------------------------------------------------|
a---------------------------------------------------------------|
e---------------------------------------------------------------|


Chorus

This is how to be a heartbreaker
e---------------------------------------------------------------|
b-10-10-10-10-10-10-10--12--10----------------------------------|
g------------------------------11-------------------------------|
d---------------------------------------------------------------|
a---------------------------------------------------------------|
e---------------------------------------------------------------|


Boys they like a little danger
e---------------------------------------------------------------|
b-10-10-10-10-10-10-10--12--10----------------------------------|
g------------------------------11-------------------------------|
d---------------------------------------------------------------|
a---------------------------------------------------------------|
e---------------------------------------------------------------|


We'll get him falling for a stranger, a player
e---------------------------------------------------------------|
b---------------------------------------------------------------|
g---12-12-12-12-12-12-12-11-7--12-12-11-7-----------------------|
d---------------------------------------------------------------|
a---------------------------------------------------------------|
e---------------------------------------------------------------|


Singing I lo-lo-love you
e---------------------------------------------------------------|
b---------------------------------------------------------------|
g---7-7----------12-11------------------------------------------|
d--------9-11-12------------------------------------------------|
a---------------------------------------------------------------|
e---------------------------------------------------------------|


At least I think I do!
e---------------------------------------------------------------|
b---------------------------------------------------------------|
g---14-12-11-12-11----------------------------------------------|
d------------------12-------------------------------------------|
a---------------------------------------------------------------|
e---------------------------------------------------------------|


OOOOOOOOOOOOOOOOOOOOOOOOOOOOOOOOOOOOOUUUUU
e---------------------------------------------------------------|
b---------------------------------------------------------------|
g---11-9-11-14-12-11---11-9-11-14-12-11-------------------------|
d---------------------------------------------------------------|
a---------------------------------------------------------------|
e---------------------------------------------------------------|


Cause I lo-lo-lo-love you.
e---------------------------------------------------------------|
b---------------------------------------------------------------|
g---7-7----------12-11------------------------------------------|
d--------9-11-12------------------------------------------------|
a---------------------------------------------------------------|
e---------------------------------------------------------------|


Verse 2
Rule number three, wear your heart on your cheek 
e---------------------------------------------------------------|
b---7-5-3-5/7-----77-55-3---------------------------------------|
g-------------------------4-------------------------------------|
d---------------------------------------------------------------|
a---------------------------------------------------------------|
e---------------------------------------------------------------|


But never on your sleeve, unless you wanna taste defeat 
e---------------------------------------------------------------|
b-----7-7-7-5-3-5/7---------------------------------------------|
g---------------------777-6-7-6-4-------------------------------|
d---------------------------------------------------------------|
a---------------------------------------------------------------|
e---------------------------------------------------------------|


Rule number four, gotta be looking pure
e---------------------------------------------------------------|
b--7-5-3-5/7-----7-7-5--3--5-5/7--------------------------------|
g---------------------------------------------------------------|
d---------------------------------------------------------------|
a---------------------------------------------------------------|
e---------------------------------------------------------------|


Kiss him goodbye at the door and leave him wanting more-more
e---------------------------------------------------------------|
b---7-7-5-5-3--5/7----------------------------------------------|
g-------------------77-6-7-6-4-4--------------------------------|
d---------------------------------------------------------------|
a---------------------------------------------------------------|
e---------------------------------------------------------------|


Bridge

Girls, we do, whatever it will take
e---------------------------------------------------------------|
b---------------------------------------------------------------|
g---4-6-7--7-7-7-11-7-6-----------------------------------------|
d---------------------------------------------------------------|
a---------------------------------------------------------------|
e---------------------------------------------------------------|


Cause girls don't want, we don't want our hearts to break
e---------------------------------------------------------------|
b---------------------------------------------------------------|
g----4-4-6-7---------7-9----11-12--14-15-16---------------------|
d---------------------------------------------------------------|
a---------------------------------------------------------------|
e---------------------------------------------------------------|


In two, so it's better to be fake
e---------------------------------------------------------------|
b---------------------------------------------------------------|
g-18-19--7-7-9-7-9-7-6------------------------------------------|
d---------------------------------------------------------------|
a---------------------------------------------------------------|
e---------------------------------------------------------------|


Can't risk losing in love again babe.
e---------------------------------------------------------------|
b--------------5------------------------------------------------|
g---4-6-7----7----7-7-6-----------4-----------------------------|
d---------------------------------------------------------------|
a---------------------------------------------------------------|
e---------------------------------------------------------------|


************************************

| /   slide up
| \   slide down
| h   hammer-on
| p   pull-off
| ~   vibrato
| +   harmonic
| x   Mute note
| b   Bend
| pb  Pre-bend
| br  Bend release
| pbr Pre-bend release
| brb Bend release bend

************************************
Tap to rate this tab
# A B C D E F G H I J K L M N O P Q R S T U V W X Y Z