Song name
# A B C D E F G H I J K L M N O P Q R S T U V W X Y Z

Mario - Level Complete tab

mario when you beat a level
!play fast!
!-*GRANDE*-!

Standard Tuning

e----------------------------|
B--------------1--5--8--5----|
G-----------0----------------|
D--------2-------------------|
A-----3----------------------|
E--3-------------------------|

e--------------------4-------|
B--------------1--4-----4----|
G-----------1----------------|
D--------1-------------------|
A--0--3----------------------|
E----------------------------|

e-----------------1--6----6-6-6--8-|
B--------------3-------------------|
G-----------3----------------------|
D-----0--3-------------------------|
A--1-------------------------------|
E----------------------------------|
Tap to rate this tab
# A B C D E F G H I J K L M N O P Q R S T U V W X Y Z