Song name
# A B C D E F G H I J K L M N O P Q R S T U V W X Y Z

Mario - I Choose You tab

-------------------------------------------------------------------------------
			     I Choose You - Mario
-------------------------------------------------------------------------------
Tabbed by: Rick "E.S" James
Email: rick.james101@hotmail.com

Tuning:

e|---------------------------------------------------------------------------|
B|----------0---------------0---------------5-------------3-------9----------|
G|------2-------2-------2-------2-------4-------4-------2-------9------------|
D|----2---2---2---2---2---2---2---2---6---6---6---6---4-------9--------------|
A|--0-------------------------------4---------------2-------7----------------|
E|------------------2--------------------------------------------------------|

thats it, repeat and once you have the hang of it, add some slides and make it fancy. 
Tap to rate this tab
 
# A B C D E F G H I J K L M N O P Q R S T U V W X Y Z